Cub – El si ea

Contribuție:  hardcoraul


intro
                                                           
e|-----2-----2-2-----2---------------2--2-2--2---------2---2-2--2------------2p0-0h2-2--3p2-2--
B|-------2---2---2-----2--------------2-2--2--2---------2--2--2--2---2------3---2-----3----3---
G|---------0-0-----0-----0----------0---0---0------------0-0---0----0------2-----------2-------
D|---0-----------------------------2------------------0--------0-------------------------------
A|--2------------------------0-2-3---------------32--2-----------------------------------------
E|-3------------------------------------------------3------------------------------------------

verse(la fel k la intro)

G                        D9 
As vrea sa treci si p la mine
G                  D
Trebuie sa-ti spun ceva
G                    C9
Nu stiu de e rau sau bine
G                D
Poate totusi voi afla
G                     C9
Te-am sunat ieri dupa masa
G                     D 
As fi vrut sa-ti spun ceva
G                C9 
Poate nu ai fost acasa
G                  D
Poate-ai fost la o cafea

ref

C            D                      G 
Esti tu sunt eu noi am fost de vina mereu
C      D                         G 
E el e ea dar ea nu prea stie ce vrea

verse

oare s-o invit la masa?
isi spunea in sine el
poate iar nu e acasa
poate iarasi e la el

ref

solo

e---5p3-3--5p3-3--3-5b-3-3-5p3-3-----------------7/5-5-3-3-7/5-5-3-3-5p3-3---------5-3-
B------5------5--5------------5-3h5-3-5-5/7-10-8-8/7-7-5-5-8/7-7-5-5----5-3h5-5-5/7----
G------------------------------------------------------------------
D------------------------------------------------------------------
A------------------------------------------------------------------
E------------------------------------------------------------------

ref

verse

A                       D 
As vrea sa treci si p la mine
A                  E
Trebuie sa-ti spun ceva
A                   D
Nu stiu de e rau sa bine
A                E 
Poate totusi voi afla

2 refrene in gama la (D-E-A)

Rock  

Pentru a putea vota sau adăuda comentarii, e nevoie să te autentifici sau înregistrezi .

Acorduri