VH2 – Trece Vremea

(5 voturi)

Contribuție:  ghit razvan


AM NOTAT CU APOSTROF NOTELE FORMATE DIN DOUA CIFRE, 
CUM AR FI 10' PT A NU SE CONFUNDA CU FRETUL "1" 
SI APOI "0" COARDA LIBERA

INTRO:

e|-------------------------------|--------------------------|
B|--10'---10'10'12'---10'10'---99|--9--10'--12'--10'--99--77|
G|-------------------------------|--------------------------|
D|-------------------------------|--------------------------|
A|-------------------------------|--------------------------|
E|-------------------------------|--------------------------|

e|------------------1O'--9--------|--------------------|
B|--2h3---7---10'----------10'---5|--55h3---33h2---0---|
G|--------------------------------|-------------------2|
D|--------------------------------|--------------------|
A|--------------------------------|--------------------|
E|--------------------------------|--------------------|



ACORDURI FOLOSITE:

       A     E    F#m    D
e|-----0-----0-----2-----2-----|
B|-----2-----0-----2-----3-----|
G|-----2-----1-----2-----2-----|
D|-----2-----2-----4-----0-----|
A|-----0-----2-----4-----------|
E|-----------0-----2-----------|


                       
Toamna se asterne incet peste umerii mei
                                    
Ca o scrisoare care mult prea tarziu a ajuns 
                   
Si n-are nevoie de raspuns
                 
Mai trece o clipa asteptand sa vii
                                    
Poate ca nu mai stii ca sunt aici fara tine
             
Ochii-mi sunt pustii.


Prerefren:               
          Draga mea, e prea tarziu pentru mine
                           
          Draga mea, de ce nu vrei sa ma crezi cand iti spun

                                 
Refren:Trece vremea, trece vremea, trece vremea
       
       Si n-o poti opri.


Departe pe mare este sufletul meu
Un marinar nu prea de mult plecat de furtuna
Mult prea greu incercat
Departe pe mare odata voi pleca si eu
E un destin neinceput ce tainic ma cheama
Si frunzele cad din copaci si e toamna.

Prerefren:..
Refren:(x2)..
Doar iubirea, doar iubirea e tot ce ne-a ramas.

Pop-Rock  

Comentarii

Pentru a putea vota sau adăuda comentarii, e nevoie să te autentifici sau înregistrezi .

Acorduri