Ștefan Bănică Junior – Poveste

(31 voturi)

Contribuție:  anonim120


intro:

e|--7-7-7--5-5-5--3-3-3--2-2-2--------------------------|
B|--8-8-8--7-7-7--5-5-5--3-3-3--5-5-5--3-1/3~~----------|
G|------------------------------5-5-5--4-2/4~~----------|
D|------------------------------------------------------|
A|------------------------------------------------------|
E|------------------------------------------------------|


Strofa:
                                 
S-au vazut, prima oara-ntr-o seara de mai
S-au placut, el avea parul scurt, ea balai


Bridge:
                                 
  Parca se cunosteau, ochi in ochi se priveau
                          
  De parca timpul ar sta pe loc

 
Nu stia ce sa-i spuna si se fastacea
El era cu doi ani mai in varsta ca ea

Bridge:
  La acelasi liceu, cu acelasi troleu
  Mergeau, dar fara sa fi stiut
 

Ref:
                     
    Se-ntampla oare s-ajungi sa iti gasesti
                          
    O jumatate cu care toata viata-i sa traiesti
 

 
Peste-un timp si-au dat mana si s-au logodit
Se iubeau, erau tineri si n-aveau nimic

Bridge:
   Insa nu mai conta, erau doar el si ea
   Intr-o poveste cum n-a mai fost
 
Solo: 

e|-------------------------------------|
B|-------------------------------------|
G|-------------------------------------|
D|---------------4-5-7-5--/9--9--9--7-5|
A|---5h7p5p4-5-7-----------10-10-10-9--|
E|-------------------------------------|

e|---------------------------------------------------|
B|---------------------------------------------------|
G|---------------------------------------------------|
D|--9h10p9p7-----------------------------------------|
A|----------10--10p9h10~--10-10-10--10/12-10---------|
E|---------------------------------------------------|


e|-------------------------------------|
B|-------------------------------------|
G|-------------------------------------|
D|---------------------------/5-5-5-7-9|
A|--9h10p9\7-9--5h7p5\4-5------------|
E|------------------------7------------|

e|-----------7-/8---10-/12-12-14-12--10~h12p10-------|
B|---------------------------------------------------|
G|-----------7-/9---11-/12-12-14-12--11--------------|
D|--7h9p5h7------------------------------------------|
A|---------------------------------------------------|
E|---------------------------------------------------|

e|---------7-8-10p8--8-8-10-8-7--h8p7\5-|
B|--7-8-10-------------------------------|
G|---------------------------------------|
D|---------------------------------------|
A|---------------------------------------|
E|---------------------------------------|

e|---------7-8-10p8--8--8--10-8--7--h8p7-5---------|
B|-7-8-10------------------------------------------|
G|------------------9--9--11-9--7-------5----------|
D|-------------------------------------------------|
A|-------------------------------------------------|
E|-------------------------------------------------|

e|----------------------------------------|
B|--10-8-7-8-10-11--10--8---7-8-10--8--7--|
G|----------------------------------------|
D|----------------------------------------|
A|----------------------------------------|
E|----------------------------------------|

e|------------8---7---5----3----5---7--8----------|
B|--7-10-8----------------------------------------|
G|----------/9---7---5---/4---5---7----9----------|
D|------------------------------------------------|
A|------------------------------------------------|
E|------------------------------------------------|

Ref:
 
Mai tarziu, anii nici pe ei nu i-au uitat
Ea purta ochelari, el era grizonat

Bridge:
   Sedeau langa copii, senini ca-n prima zi
   Si se gandeau la o seara de mai

Pop-Rock  

Comentarii

Pentru a putea vota sau adăuda comentarii, e nevoie să te autentifici sau înregistrezi .

Acorduri