Grasu' XXL – Elegant (feat. Maximilian)

(8 voturi)

Contribuție:  Lalu


Melodia e de fapt pe doua chitari, dar eu am incercat sa pun pe una singura.
Stiu ca nu e chiar foarte comod de cantat, dar am incercat sa o fac pe cat mai
simplu si  complet posibil. Daca nu va iese ultima parte cu acordurile Dm6 si
F/D, faceti simplu 

B-|-0----0--0-3--1--|

Notatii:
v = in sus, incet (ca volum) - optional -
ex.: 0b = bend - optional - (improvizeaza si tu, da-i pe 4 de pe G, pull off,
ceva ca n-ai cum sa faci bend la 0 :D)

    Am      v 
e-|-0---0--(0)0---------------|
B-|-1---1--(1)1----0--1-0b----|
G-|-2---2--(2)2------------2--|        (x2)
D-|-----------2---------------|
A-|---------------------------|
E-|---------------------------|

    Dm      v                            Dm6          F/D
e-|-1---1--(1)1---------------|-1---1--(1)1----1----1--1--|
B-|-3---3--(3)3----1--3-1b-0--|-3---3--(3)0----0--0-3--1--|
G-|-2---2--(2)2---------------|-2---2--(2)2----2----2--2--|
D-|-----------0---------------|-----------0----0----------|
A-|---------------------------|---------------------------|
E-|---------------------------|---------------------------|

Ultima actualizare:  19.04.2008

Pentru a putea vota sau adăuda comentarii, e nevoie să te autentifici sau înregistrezi .