Florin Chilian – Zece

(339 voturi)

Contribuție:  rasgeado


capodastru pe IV 

L = nota legata de cea precedenta, practic o lungesti pe cea precedenta
^ = inseamna sa luneci pe corzi de sus in jos cu degetul, si nu invers

Intro:

E||--------------3--1----0--|---------------------------|
B||-----------1-------------|--3--1--0--1---------1--0--|
G||--------0----------------|-----------2----0h-2-------|
D||-----2-------------------|-----------2---------------|
A||--3----------------------|--2------------------------|
E||-------------------------|---------------------------|

--------------------------|-----0----L--------------|--------------------------|
--------------0--1--0--1--|--3--1----L--3--1--------|--------1--------1--------|
--0-------0-2-------------|-----0----L--------0-----|-----0--------0--------0--|
-----3--------------------|----------------------2--|--3--------2--------0-----|
--------------------------|-----3----L--------------|--------------------------|
--------------------------|-------------------------|--------------------------|


----------------------------|-------3g5----3----0----L--|
-----------0--0g1--0--------|---------0-----0----0----L--|
--------0-------------0-----|----------------------------|
-----0----------------------|----------------------------|
----------------------------|----------------------------|
--3----------------------3--|--L-------------------------|


--------------3--1----0--|---------------------------|
-----------1-------------|--3--1--0--1---------1--0--|
--------0----------------|-----------2----0h-2-------|
-----2-------------------|-----------2---------------|
--3----------------------|---------------------------|
-------------------------|---------------------------|


--------------------------|-----0----L--------------|--------------------------|
--------------0--1--0--1--|--3--1----L--3--1--------|--------1--------1--------|
--0-------0-2-------------|-----0----L--------0-----|-----0--------0--------0--|
-----3--------------------|----------------------2--|--3--------2--------0-----|
--------------------------|-----3----L--------------|--------------------------|
--------------------------|-------------------------|--------------------------|


                                       ^    ^            
----------------------------|----------1----1----0--L--||
-----------0--0g1--0--------|----------1----1----------||
--------0-------------0-----|----------0----0----------||
-----0----------------------|--------------------------||
----------------------------|--------------------------||
--3----------------------3--|--L-----------------------||


XXXXXXXXXXXXXXXXXXXXXXXXXXXXXXXXXXXXXXXXXXXXXXXXXXXXXXXXXXXXXXXXXXXXXXXXXXXXXXXXXXXXXXXX

Ciupitura pe versuri

mana dreapta:
p - degetul gros 
i - degetul aratator
m - degetul mijlociu
a - degetul inelar


     Am                 F                    C                   G
	Zece    intam- plari ciudate si-o mi nune te-au       a  dus in casa, zece 
E||----------0--------|-----------1-------|----------0--------|-----------3--------|
B||--------1---1------|---------1---1-----|--------1---1------|---------0---0------|
G||------2-------2----|-------2-------2---|------0-------0----|-------0-------0----|
D||----2-----------2--|-----3-----------3-|----2-----------2--|-----0-----------0--|
A||--0----------------|-------------------|--3----------------|--------------------|
E||-------------------|--1----------------|-------------------|--3-----------------|
     p p i m a m i i


     Am                 Em                  F        G              C          C  G Am
      Zece pictori        se tot mira               Cat esti de fru moasa
E||----------0--------|-----------0-------|-------------------|------------------------|
B||--------1---1------|---------0---0-----|--------1-----0----|----------1-----1--0--1-|
G||------2-------2----|-------0-------0---|------2-----0---0--|--------0---0---0--0--2-|
D||----2-----------2--|-----2-----------2-|----3--------------|----------------2--0--2-|
A||--0----------------|-------------------|-------------------|-----3----------3-----0-|
E||-------------------|--0----------------|--1-------3--------|-------------------3----|
     p p i m a m i i                                 p i m i        p  i m i   a  a  a
									       m  m  m
					                                       i  i  i
                                                                               p  p  p


XXXXXXXXXXXXXXXXXXXXXXXXXXXXXXXXXXXXXXXXXXXXXXXXXXXXXXXXXXXXXXXXXXXXXXXXXXXXXXXXXXXXXXXXX



                             
Zece intamplari ciudate si-o minune
                    
Te-au adus in casa, zece
                     
Zece pictori se tot mira
             
Cat esti de frumoasa

  

                        
Zece zile trec absurd de nu stiu
                                     
Nu stiu cum, nu stiu pe unde, nu stiu
                         
Zece vieti de-as sta cu tine
           
Tot ar fi putine

  

            
Doua stele, paralele,
                
Stele, lacrimi innodate si
          
Lumina de la ele
           
Pentru tine toate

  

              
Patru printi cu trei castele
              
Ape, lanturi fermecate si
                 
Tot cerul peste ele
             
Pentru tine toate

Zece intamplari ciudate si-o minune
Te-au adus in casa, zece
Zece pictori se tot mira
Cat esti de frumoasa

Zece zile trec absurd de nu stiu
Nu stiu cum, nu stiu pe unde, nu stiu
Zece vieti de-as sta cu tine
Tot ar fi putine

Sapte zane, toate bune
Licurici, sperante-n noapte si
Piticii din poveste
Pentru tine toate

Noua magi in faptul serii
O potcoava sus departe, si
Comorile din suflet
Pentru tine toate

Zece intamplari ciudate si-o minune
Te-au adus in casa, zece
Zece pictori se tot mira
Cat esti de frumoasa

Zece zile trec absurd de nu stiu
Nu stiu cum, nu stiu pe unde, nu stiu
Zece vieti de-as sta cu tine
Tot ar fi putine

Blues  

Ultima actualizare:  19.01.2012

Comentarii

Pentru a putea vota sau adăuda comentarii, e nevoie să te autentifici sau înregistrezi .

Acorduri