Florin Chilian – Zece (Intro)

(22 voturi)

Contribuție:  Lalu


Intro de la varianta video:
(Este varianta corecta, sunt aproape 100% sigur, dar mi se pare
cam dificil de cantat. Va descurcati voi :D.

e||--------------0--3----1--|-----0--------------------|
B||-----------1-------------|-----------3-----1--0--1--|
G||--------0----------------|--------------0-----------|
D||-----2-------------------|--------0-----------------|
A||--3----------------------|--2-----------------------|
E||-------------------------|--------------------------|

e||--------------------------|-----------------------0----|
B||--------------1--0--------|----0-1-0-----0--1--3-------|
G||-----------2--------0-----|-----------2----------------|
D||--------2--------------0--|----------------------------|
A||--0--3--------------------|--0----------------------3--|
E||--------------------------|----------------------------|

e||-------------0--------------|--------------------------|
B||---------3---1--1-----1-----|-----1--1-----1--3--------|
G||-----0--(5)--------0--------|--0--------0-----5--5-----|
D||--2----------------------3--|--------2-----------------|
A||----------------------------|--------------------------|
E||-------------------------3--|-----------------3-----3--|
  
e||--------------------------|-----------1---1---0----||
B||----------1--0-----0------|----0-------------------||
G||-------0--------0-------0-|-------0----------------||
D||--------------------------|------------------------||
A||--------------------------|------------------------||
E||---------------------3----|------------------------||

Folk  

Comentarii

Pentru a putea vota sau adăuda comentarii, e nevoie să te autentifici sau înregistrezi .

Acorduri