Coma – Stai

(2 voturi)

Contribuție:  micutzu


Varianta originala de pe vechiul site coma.Transpunere facuta de calin 
marcu,chitaristul formatiei coma.

Intro - clean tone
B|------------------|
G|------------------|
D|------------------|
A|--4/5--5-5-5--2---|
E|--2/3--3-3-3--2---| 
B|--------------0---|
 
/ = slide


Intro - distors
 
B|-------------|---------------------|
G|-------------|---------------------|
D|-------------|---------------------|
A|-------------|--4/5--5-5-5--2------|
E|--3\\2---2----|--2/3--3-3-3--2------|
B|------3---3--|--------------0------|
 

Refren

B|---------------------------------|---------------------------------|
G|---------------------------------|---------------------------------|
D|---------------------------------|---------------------------------|
A|--4/5--5-5-5--2------------------|--4/5--5-5-5--2------------------|
E|--2/3--3-3-3--2---3\\2---2--------|--2/3--3-3-3--2---3\\2---2--------|
B|--------------0-------3---3------|--------------0-------3---3-2-3--|

\\ = pull-off



Iesire din refren
 
B|------------|
G|------------|
D|--5---------|
A|--5--5--2---|
E|--3--5--2---|
B|-----3--0---|
 

Bridge
 
B|---------------------------|
G|---------------------------|
G|---------------------------|
D|--2-4-2----2-4-5----4-5-4--|
A|--2-4-2----0-2-5----4-5-4--|
D|--0-2-0--------3----2-3-2--|
 
Interludiu (kestie nasoala)
 
B|-----------------------------|
G|-----------------------------|
G|-----------------------------|
D|--2-4-2--2--2-4--------------|
A|--2-4-2--2--0-2---2-----3----|
D|--0-2-0--0------3---3-2---1--|

Rock  

Ultima actualizare:  02.05.2008

Comentarii

Pentru a putea vota sau adăuda comentarii, e nevoie să te autentifici sau înregistrezi .