Trooper – Tari ca muntii

(3 voturi)

Contribuție:  vladu


chitara:
intro 
e|----------------------------------------------------
b|----------------------------------------------------
g|----------------------------------------------------
d|-----9-8--9-8--8-8-8s9-----9-8--------5-7-----7-9---
a|-----7-7--7-7--7-7-7-------7-7-------5-------7------
e|-0-0--0--0-0--0-0------0-0--0---0-3---------5-------
vers
e|-----------------------------------------------------------------
b|-----------------------------------------------------------------
g|-----------------------------------------------------------------
d|--2-2--2-2-2--2-2-2--2-2-2--2-2-2--2-2-2------5-7------7-9-------
a|--2-2--2-2-2--2-2-2--2-2-2--2-2-2--2-2-2-----5--------7----------
e|--0-0--0-0-0--0-0-0--0-0-0--0-0-0--0-0-0--3---------5------------

pana in refren
e|------------------------------------------------
b|------------------------------------------------
g|--4----5-7-4----5-2-4----5-7-4------------------
d|--4----5-7-4----5-2-4----5-7-4-----2-4----------
a|--2----3-5-2----3-0-2----3-5-2-----0s2-5-7-4-5--
e|---------------------------------------3s5-2s3--

refren

e|----------------------------------
b|----------------------------------
g|----------------------------------
d|-----9----9---12------------7--9--
a|-----7----7---10---12\\---7--9--
e|-0-0--0-0--0-0--0-0---------5--7--

apoi din nou intro

Rock  

Comentarii

Pentru a putea vota sau adăuda comentarii, e nevoie să te autentifici sau înregistrezi .