Fără Zahăr – 2r2rik (varianta ciupita)

(6 voturi)

Contribuție:  metall_966


Intro:
----2-----2-----2--2p3h2-----0-----0-----3-3-0---------
-------------------------------------------------------
-2-----2-----2------------2-----2-----2----------------
-------------------------------------------------------
-------------------------------------------------------
-------------------------------------------------------


Strofa:
  D                                    A
-----3--------3--------3--------3--------0--------0--------0--------0-----
---2---2----2---2----2---2----2---2----3---3----3---3----3---3----3---3---
-3--------3--------3--------3--------3--------3--------3--------3---------
--------------------------------------------------------------------------
--------------------------------------------------------------------------
--------------------------------------------------------------------------


Primăvara plouă, turturelele se ouă
Primăvara plouă, turturelele se ouă
Vino dar iubita mea să vedem o turturea
Vino dar iubita mea s-o vedem şi noi pe ea

Vara plouă, turturelele se ouă
Vara plouă, turturelele se ouă
Vino dar iubita mea să vedem o turturea
Vino dar iubita mea s-o vedem şi noi pe ea

Toamna plouă, turturelele se ouă
Toamna plouă, turturelele se ouă
Vino dar iubita mea să vedem o turturea
Vino dar iubita mea s-o vedem şi noi pe ea

Iarna ninge, deci nu plouă, turturelele se ouă
Iarna ninge, deci nu plouă, turturelele se ouă
Vino dar iubita mea să ne dăm cu sania
Vino dar iubita mea să ne dăm cu sania

Turturele, de unde pana mea
Turturele, de unde pana mea

Comentarii

Pentru a putea vota sau adăuda comentarii, e nevoie să te autentifici sau înregistrezi .