Fuego – La la la la (solo)

Contribuție:  Liviel


Strofa
E||-----------------------|-----------|-----------------------|-----------|
B||-----------------------|-----------|-----------------------|-----------|
G||--------2--2--0-----0--|--2--3--2--|--------2--2--0-----0--|--2--3--2--|
D||--0--0-----------3-----|-----------|--0--0-----------3-----|-----------|
A||-----------------------|-----------|-----------------------|-----------|
E||-----------------------|-----------|-----------------------|-----------|
                                                                       
-----------------------|-----------------------|----------------------|
--------3--3--3--3--1--|-----------------------|----------------------|
-----------------------|--3--2--0--0--0--2-----|--------2----0-----0--|
--3--3-----------------|--------------------0--|--0--3----------3-----|
-----------------------|-----------------------|----------------------|
-----------------------|-----------------------|----------------------|
                                                            
-----------|-----------------------|-----------------------|
-----------|--------3--3--3--3--1--|-----------------------|
-----------|-----------------------|--3--2--0--0--0--2-----|
--3--2--0--|--3--3-----------------|--------------------0--|
-----------|-----------------------|-----------------------|
-----------|-----------------------|-----------------------|
                                                           
----------------------|-----------|
----------------------|-----------|
--------2----0-----0--|-----------|
--0--3----------3-----|--3--2--0--|
----------------------|-----------|
----------------------|-----------|


Refren
(lalalala)


|-----------------------|-----------------------|-----------------------|
|--------3--1-----------|-----------------------|-----------------------|
|-----3--------2-----0--|-----0--3--2--0--------|--------2--0-----------|
|--3--------------3-----|--0--------------0--3--|--0--3--------3--2--0--|
|-----------------------|-----------------------|-----------------------|
|-----------------------|-----------------------|-----------------------|
|-----------------------|-----------------------|-----------------------||
|--------3--1-----------|-----------------------|-----------------------||
|-----3--------2-----0--|-----0--3--2--0--------|--------2--0-----------||
|--3--------------3-----|--0--------------0--3--|--0--3--------3--2--0--||
|-----------------------|-----------------------|-----------------------||
|-----------------------|-----------------------|-----------------------||

Pentru a putea vota sau adăuda comentarii, e nevoie să te autentifici sau înregistrezi .