Coma – Stai (unplugged)

Contribuție:  TudorV


Intro:
e|-----------------------------------|
B|-----------------------------------|
G|-----------------------------------|
D|-----------------------------------|
A|-0-0-0-2-2-2-2-2-2-2-2-2-2-2-2-2---|
E|-----------------------------------| de 4 ori

e|-0---0---2---2---2---2---2---2-----|
B|---4---4---4---4---4---4---4---4---|
G|-----------------------------------|
D|-----------------------------------|
A|-0-0-0-2-2-2-2-2-2-2-2-2-2-2-2-2---|
E|-----------------------------------| de 4 ori

e|-0---0---2---2---5---5---2---2-----|
B|---4---4---4---4---7---7---4---4---|
G|-----------------------------------|
D|-----------------------------------|
A|-0-0-0-2-2-2-2-2-5-5-5-5-2-2-2-2---|
E|-----------------------------------|

e|-0---0---2---2---2---2---2---2-----|
B|---4---4---4---4---4---4---4---4---|
G|-----------------------------------|
D|-----------------------------------|
A|-0-0-0-2-2-2-2-2-2-2-2-2-2-2-2-2---|
E|-----------------------------------| de 4 ori

e|-0---0---2---2---5---5---2---2-----|
B|---4---4---4---4---7---7---4---4---|
G|-----------------------------------|
D|-----------------------------------|
A|-----------------------------------|
E|-----------------------------------|

e|-0---0---2---2---2---2---2---2-----|
B|---4---4---4---4---4---4---4---4---|
G|-----------------------------------|
D|-----------------------------------|
A|-----------------------------------|
E|-----------------------------------| de 4 ori 

      de 4 ori  
             
(stai,stai) esti altfel azi
          
(taci,taci) cu vorbe calzi
          
(faci,faci) pacat din ce crezi
          
            ca s-a terminat

Vers: 
riff1:
e|-----------------------------------|
B|-----------------------------------|
G|-----------------------------------|
D|-4-4-4-4-4---0-0-------------------|
A|-------------------2-2-2-2-2-------|
E|-----------------------------------| de 2 ori
riff2:
e|-----------------------------------|
B|-----------------------------------|
G|-0-0-0-0-0-------------------------|
D|-----------0-0---------------------|
A|-----------------2-2-2-2-2---------|
E|-----------------------------------| de 2 ori

riff1
te simt cu gandul fierbinte
dar nu te simt aici
plutesti undeva departe
riff2
esti altfel azi..esti altfel azi
riff1
iti simt privirea calda
dar nu o simt aici
cauti..cauti ceva departe
riff2
esti altfel azi...esti altfel azi


Refren:
             
(stai,stai) esti altfel azi
          
(taci,taci) cu vorbe calzi
          
(faci,faci) pacat din ce crezi
                              
            ca s-a terminat 

Vers:

parca ai vrea o naivitate noua
de altundeva,neatinsa si calma

esti altfel azi..esti altfel azi

desi ma port la fel in cuvinte si gesturi
imi calci patima cu ochii..

zambind

Refren: 

(stai,stai) esti altfel azi
(taci,taci) cu vorbe calzi
(faci,faci) pacat din ce crezi
            ca s-a terminat 

Bridge:
e|-----------------------------------|
B|-----------------------------------|
G|-----------------------------------|
D|--4--4--4--4--6--6--5--5-----------|
A|-----------------------------------|
E|-----------------------------------|

da-mi cuvinte sa-nteleg 
ce se intampla cu tine
da-mi cuvinte sa-nteleg
ce se intampla cu tïne...

   

Refren:

(stai,stai) esti altfel azi
(taci,taci) cu vorbe calzi
(faci,faci) pacat din ce crezi
            ca s-a terminat 


Outro:
e|-----------------------------------|
B|-----------------------------------|
G|-----------------------------------|
D|-----------------------------------|
A|-2-2h4-4h5-5h7---------------------|
E|-----------------------------------|

 
esti altfel azi
cu vorbe calzi
pacat din ce crezi
ca s-a terminat 

    de 4 ori 

     de 4 ori


A5: x02200
B5: x24422
C#5:x46644
D5: x57755
E5: x79977
G5: 355333

cam asa. ascultati melodia pt batai si altceva. sper sa va ajute.
apropo, melodia asta se canta defapt in 2 chitari dar eu incercat sa fac pt una singura. bafta!

Rock  

Ultima actualizare:  21.04.2009

Pentru a putea vota sau adăuda comentarii, e nevoie să te autentifici sau înregistrezi .

Acorduri