Victor Socaciu – Tata și caii

(26 voturi)

Contribuție:  rasgeado


Precizez ca aceasta e o "posibila ciupitura" nu una neapărat fidelă
cu originalul - asa îl cant eu. Pentru mana dreapta, paternul de
ciupit e: bas (degetul gros - p), degetul lung (m), deget arătător(i) etc, 
mai exact:


||--------------------|--------------------|
    p m i    p m i        p m i    p m i  etc..


vers 1:

                                                               
                                       Stau la geam 
E||-----0--------0-----|-----0--------0-----|--------------------|
B||--------0--------0--|--------0--------0--|-----1--------1-----|
G||--------------------|--------------------|--------0--------0--|
D||--2-----------------|--2-----------------|--------------------|
A||-----------2--------|-----------2--------|--3-----------------|
E||--------------------|--------------------|-----------3--------|

                                                            
in orasul    cel      mare
--------------------|--------------------|--------------------||
-----3--------3-----|-----0--------0-----|-----0--------0-----||
--------2--------2--|--------0--------0--|------- 2--------2--||
--0-----------------|-----------0--------|-----------1--------||
-----------0--------|--------------------|--2-----------------||
--------------------|--3-----------------|--------------------||

vers 2:

                       
Si   aud 
E||--------------------|
B||-----1--------1-----|
G||--------0--------0--|
D||--------------------|
A||--3-----------------|
E||-----------3--------|


                                                            
O căruță            cu cai 
--------------------|--------------------|--------------------||
-----3--------3-----|-----0--------0-----|-----0--------0-----||
--------2--------2--|--------0--------0--|------- 2--------2--||
--0-----------------|-----------0--------|-----------1--------||
-----------0--------|--------------------|--2-----------------||
--------------------|--3-----------------|--------------------||

vers 3:

                        
Unu-i alb,        altu-i negru
E||--------------------|--------------------|
B||-----1--------1-----|-----0--------0-----|
G||--------0--------0--|--------0--------0--|
D||--------------------|-----------0--------|
A||--3-----------------|--------------------|
E||-----------3--------|--3-----------------|

                                       
si-mi pa              re 
|--------------------|--------------------||
|-----1--------1-----|-----0--------0-----||
|--------2--------2--|------- 2--------2--||
|-----------2--------|-----------1--------||
|--0-----------------|--2-----------------||
|--------------------|--------------------||

vers 4:

                        
Ca ei sunt          unul iad
E||--------------------|--------------------||
B||-----1--------1-----|-----0--------0-----||
G||--------0--------0--|------- 2--------2--||
D||--------------------|-----------1--------||
A||--3-----------------|--2-----------------||
E||-----------3--------|--------------------||

                                                             
Și-altul rai
E||-----0--------0-----|-----0--------0-----|
B||--------0--------0--|--------0--------0--|
G||--------------------|--------------------|
D||--2-----------------|--2-----------------|
A||-----------2--------|-----------2--------|
E||--------------------|--------------------|

                           
Stau la geam în orașul cel mare
                    
Și aud o căruță cu cai
                             
Unu-i alb, altu-i negru și-mi pare
                           
Că ei sunt unui iad și-altul rai

Dar țăranul acela ce-i mână
Prin mașini descurcându-se greu
Dumnezeule, parcă e tata!
Căruțașul e chiar tatăl meu

	Refren:

                                                          
Tropa-trop prin oraș   Șchiopătatul         galop       un țăran 
E||-----0-----0-----2--|-----2-----3-----3--|-----0-----0-----0--|
B||-----1-----1-----3--|-----3-----0-----0--|-----0-----0-----1--|
G||-----2-----2-----2--|-----2-----0-----0--|-----0-----0-----2--|
D||--------2-----0-----|--------------0-----|--------------------|
A||--0-----------------|--0-----------------|--------2-----0-----|
E||--------------------|--------3-----------|--0-----------------|

                                       
și doi cai  tropa - trop   
-----0-----2-----2--|-----0-----0-----0--||
-----1-----0-----0--|-----0-----0-----0--||
-----2-----2-----2--|-----0-----0-----0--||
--2-----------1-----|--------------------||
--------2-----------|--------2-----------||
--------------------|--0-----------0-----||
	
	               
	Tropa-trop prin oraș
	              
	Șchiopătatul galop
	               
	Un țăran și doi cai,
	      
	Tropa-trop

	(2 ori)

Va lua-o încet către casă
Va mâncă printr-un parking ascuns
Și din tropotul somn o să cadă
Și aceasta-i va fi deajuns

Și departe în sat este mama
Lunecând peste treburi grăbind
Un stigmat părintesc mă-presoară
Ca un plâns ce-a ajuns tropotind

Refren

Stau la geam în orașul cel mare
N-am curajul măcar să cobor
Să-l invit înăuntru pe tata
Mi-e rușine mai mult decât dor

Și-ntr-o carte poștală târzie
C-o ștampilă de iad și de rai
Voi afla c-a murit pe șosele
Lunecând sub copite de cai

	Refren

Folk  Despre tata  

Ultima actualizare:  19.06.2008

Comentarii

Pentru a putea vota sau adăuda comentarii, e nevoie să te autentifici sau înregistrezi .

Acorduri