Mihai Mărgineanu – Pentru Tudor

(1 voturi)

Contribuție:  ghit razvan


INTRO

e|----------0------0--|----------0------1---|
B|--------0---0----2--|--------0---0----2---|
G|------2-------2--2--|------2-------2--2---| x2
D|----2---------------|----2----------------|
A|--0-----------------|--0------------------|
E|--------------------|---------------------|


ACORDURI FOLOSITE:
  
                     
e|--0------1-----0-----0------1--|
B|--2------2-----3-----0------3--|
G|--2------2-----2-----1------2--| 
D|--2------3-----0-----2------0--|
A|--0------------------2---------|
E|---------------------0---------|



Sa nu uiti niciodata

Ca esti facut c-o viata
                                  
Pe care merita din plin sa ti-o traiesti.

Sa n-ai gand de marire

Si nici de imbogatire
                                     
C-alfel pierzi esenta lucrurilor pamantesti.


                            
Ref: Ca este scris si-asa va fi
                           
     Sa ai bucuria de-a trai.



Gaseste-ti tu o fata

Cum am facut si eu odata
                                  
Si umple-ti sufletul cu un copil curat.

Ia ce-i bun de la lume,

Dragostea e o minune
                                
Si de vei iubi, vei fi iubit la fel.


                            
Ref: Ca este scris si-asa va fi
                           
     Sa ai bucuria de-a trai.



Sa-ti fie viata cantec

Si-atingerea descantec

S-ai nobila menirea

S-aduci doar fericire. 


A, Aaug x 2

A

Ultima actualizare:  13.08.2009

Pentru a putea vota sau adăuda comentarii, e nevoie să te autentifici sau înregistrezi .

Acorduri