Coma – In Mine In Soapta

(1 voturi)

Contribuție:  Dashredder


Music by Coma
Tabbed by Voinea Alexandru
Album: Somn (2001)  
Song: In Mine In Soapta
Tuning: B Standard : B E A D G B e

* = harmonica naturala

Intro & Refren (Distortie)
e|--------|-----------------------------------|
B|--------|-----------------------------------|
G|--------|-----------------------------------|
D|--------|------------2-2-2-5-5-5-5-5--------|
A|--5-4---|2-2-2-2-2-4-2-2-2-5-5-5-5-5--------|
E|--5-4---|2-2-2-2-2-4-0-0-0-3-3-3-3-3--------|
B|--3-2-0-|0-0-0-0-0-2------------------------|


Vers (Clean )
e|------------------------------|
B|------------------------------|
G|------------------0-0-0/0-0---|
D|------0--------0--5-5-5/4-4---|
A|----2----2---2----3-3-3/2-2---|
E|-----------3------------------|
B|--0---------------------------|


Pre-Refren (Clean)
e|----------------------------------------|
B|----------------------------------------|
G|----------------------------------------|
D|--0-0-0-0-0-0-0-0-0--0--0--0--0-0-0-0---|
A|--2-2-2-2-5-5-5-5-10-10-10-10-7-7-7-7---|
E|--2-2-2-2-5-5-5-5-10-10-10-10-7-7-7-7---|
B|--0-0-0-0-3-3-3-3-8--8--8--8--5-5-5-5---|


Bridge (Distortie)

e|--------------|-------------------------------|
B|--------------|-------------------------------|
G|--------------|-------5*-------5*-----5*------|
D|--4-----5-----|-------------------------------|
A|--4(x8)-5(x8)-|-2-2-2----2-2-2----2-2---------|
E|--2-----3-----|-2-2-2----2-2-2----2-2---------|
B|--------------|-0-0-0----0-0-0----0-0---(x2)--|

Rock  

Ultima actualizare:  21.08.2009

Pentru a putea vota sau adăuda comentarii, e nevoie să te autentifici sau înregistrezi .