Mayai Gyozo – Totusi, iubirea

(1 voturi)

Contribuție:  failedJr


Am                 Dm
Si totusi e stare de veghe
C         E       Am
Si totusi murim repetat
Si totusi mai cred in pereche
Si totusi ceva sa-ntamplat

Pretentii nici n-am de la lume
Un pat, intuneric si tu
Intram in amor fara nume
Fiorul ca fulger cazut

R:Si totusi exista iubire
Si totusi exista blestem
Dau lumii, dau lumii de stire
Iubesc, am curaj si ma tem.

Motoarele lumii sunt stinse
Retele pe cai au cazut
Un mare pustiu pe cuprins e
Trezeste-le tu c-un sarut

Acum te declar Dumnezee
Eu insumi ma simt Dumnezeu
Continua lumea femeie
Cu plozi scrisi in numele meu

Afara roiesc intunerici
Aici suntem noi luminosi
Se cearta-ntre ele biserici
Facandu-si acelasi repros

Si tu si iubirea exista
Si moartea exista in ea
Imi place mai mult cand esti trista
Tristetea, de fapt, e a ta

Genunchii mi-i plec pe podele
Cu capul ma sprijin de cer,
Tu esti in puterile mele,
Desi inchizitii te cer

Ce spun se aude aiurea,
Ma-ntorc la silaba dintai,
Praval peste tine padurea:
Adio, adica ramai

Incercati ciupitura aceasta mie imi suna foarte bine:
   Am                      Dm                      C           
|-----------0--------0--------------1--------1----------------
|--------1--------1--------------3--------3--------------1----
|-----2--------2--------0-----2--------2--------0-----0-----0-
|--------------------------0----------------------------------
|--0-----------------------------------------------3----------
|-------------------------------------------------------------
 E           Am
----------------------0--------0-----
-------0-----------1--------1--------
----1-----0-----2--------2--------2--
-------------------------------------
-------------0-----------------------
-0-----------------------------------

Ca sa va fie ceva mai clar faceti ciupitura pe ultimele 3corzi de 2ori 
iar apoi mai da-ti odata sol-ul cam in asta consta ciupitura.La toate 
acordurile, mai putin ultimul la minor, se face ultima ciupitura(acel sol 
liber) in timp ce schimbati pe urmatorul acord si de aceea la acele 
acorduri nu puteti prinde decat pe 0 coarda

Pentru finalul piesei:
E|-------------------------------------------------------------------------------------0-
B|-------1--------1--------------1--------1--------------1-----------1--------------1----
G|----2--------2--------2-----2--------2--------2-----2-----2-----2-----2--------2-------
D|-2--------3--------2-----0--------2--------0--------------------------------2----------
A|-------------------------------------------------3-----------2-----------0-------------
E|---------------------------------------------------------------------------------------

Ultima actualizare:  12.12.2011

Comentarii

Pentru a putea vota sau adăuda comentarii, e nevoie să te autentifici sau înregistrezi .