Coma – Coboara-ma-n rai

Contribuție:  micutzu


Tab pus pe pagina de myspace a trupei coma de catre calin,chitaristul formatiei.


B|----------------------------------------- 
G|----------------------------------------- 
D|----------------------------------------- 
A|------------------4--4--4--4--4--4--4--4- 
E|------------------2--2--2--2--2--2--2--2- 
B|---------------------3--3--3--3--5--5--5- 



B|--------------2---------------------------------- 
G|--------------2---------------------------------- 
D|--4---4---4---4---------------------------------- 
A|--4---4---4---4-------5---5---5---5-/-7---7---7-- 
E|--2---2---2---2-------5---5---5---5-/-7---7---7-- 
B|----------------------3---3---3---3-/-5---5---5—- 

B|------------------------------------------------ 
G|------------------------------------------------ 
D|------------------------------------------------ 
A|--4--4--4--4--4--4-------4--4--4--4--4--4------- 
E|--2--2--2--2--2--2-------2--2--2--2--2--2------- 
B|-----------------3----------------------3------- 

B|-------------------------------------------------------------------- 
G|-------------------------------------------------------------------- 
D|--7-----7---7----7--4-4-4-4-4-4-7-----7---7----7--11-11-11-11-11-11- 
A|--9---9-------9-----5-5-5-5-5-5-9---9-------9-----12-12-12-12-12-12- 
E|-------------------------------------------------------------------- 
B|-------------------------------------------------------------------- 

B|-------------------------------------------------------------- 
G|-------------------------------------------------------------- 
D|-----------------4-4-4-4-4-4----------------11-11-11-11-11-11- 
A|--9---9---9---9--5-5-5-5-5-5-9---9---9---9--12-12-12-12-12-12- 
E|--9---9---9---9--------------9---9---9---9-------------------- 
B|--7---7---7---7--------------7---7---7---7-------------------- 


B|-------------------------------------------------- 
G|-------------------------------------------------- 
D|-------------------------------------------------- 
A|--4--4--4--4--4--5---------4--4--4--4--4--5------- 
E|--2--2--2--2--2--5---------2--2--2--2--2--5------- 
B|-----------------3------------------------3------- 


B|--------------2---------------------------------- 
G|--------------2---------------------------------- 
D|--4-----------4---------------------------------- 
A|--4-----------4-------5---5---5---5-/-7---7---7-- 
E|--2-------------------5---5---5---5-/-7---7---7-- 
B|----------------------3---3---3---3-/-5---5---5—- 
  PM.| 


B|--------------2---------------------------------- 
G|--------------2---------------------------------- 
D|--4-----------4---------------------------------- 
A|--4-----------4-------5---5---5---5---2---2---2-- 
E|--2-------------------5---5---5---5---2---2---2-- 
B|----------------------3---3---3---3---0---0---0—- 
  PM.| 


B|----------9-------------------9--------------------9----------------------12---------- 
G|-----9------9----9-------9------9----9-------11------11----11-------14-------14----14- 
D|--11---11-----11------11---11-----11------11----11------11-------14----14-------14---- 
A|-------------------------------------------------------------------------------------- 
E|-------------------------------------------------------------------------------------- 
B|-------------------------------------------------------------------------------------- 


B|------------------------------------------------------ 
G|------------------------------------------------------ 
D|--4-----4-----4--4------------4-----4-----4--4-------- 
A|--4-----4-----4--4--5---------4-----4-----4--4--5----- 
E|--2---0-2---0-2--2--5---------2---0-2---0-2--2--5----- 
B|--------------------3---------------------------3----- 
  PM....................|     PM....................| 



B|--------------------<3>---------------------<3>--- 
G|--------------------<3>---------------------<3>--- 
D|--------------------<3>---------------------<3>--- 
A|--4--4--4--4--4--5--<3>---4--4--4--4--4--5--<3>--- 
E|--2--2--2--2--2--5--------2--2--2--2--2--5-------- 
B|-----------------3-----------------------3--------

Rock  

Pentru a putea vota sau adăuda comentarii, e nevoie să te autentifici sau înregistrezi .