Coma – Maini catre cer

Contribuție:  micutzu


Tab pus pe pagina de myspace a trupei coma de catre calin,chitaristul formatiei.

B|--------------------------------------------------------------------------- 
G|--------------------------------------------------------------------------- 
D|--------------------------------------------------------------------------- 
A|----------------------------------------------------------------------0-0-- 
E|----------4---------------------------------4-------------------------0-0-- 
A|--2h4-4-4---4-4-4-2h4-4-4-2-4-5-----2h4-4-4---4-4-4-2h4-4-4-2-4-5-----0-0—- 
                                                                      PM...| 

B|-----------0------------------------------0--------------------- 
G|-----------0------------------------------0--------------------- 
D|-----------0------------------------------0--------------------- 
A|--2-4--------4------2-4------2-4-4-5--------5------4-5------4-5- 
E|--2-4--------4------2-4------2-4-4-5--------5------4-5------4-5- 
A|--2-4--------4------2-4------2-4-4-5--------5------4-5------4-5- 

B|-----------0------------------------------------------------------------ 
G|-----------0------------------------------------------------------------ 
D|-----------0------------------------------------------------------------ 
A|--2-4--------4------2-4------2-4-5------5-7-7-7-7---7-7-7-5-5-5-5-5-5-5- 
E|--2-4--------4------2-4------2-4-5------5-7-7-7-7---7-7-7-3-3-3-3-3-3-3- 
A|--2-4--------4------2-4------2-4-5------5-7-7-7-7---7-7-7--------------- 

B|--------------------------------------------------------------------- 
G|--------------------------------------------------------------------- 
D|--------------------------------------------------------------------- 
A|--7--------4--------4----------------7--------4--------4------------- 
E|--5--------2--------4----------------5--------2--------4------------- 
A|--------------------4----------------------------------4------------- 

B|----------------------------------------------------------------- 
G|----------------------------------------------------------------- 
D|----------------------------------------------------------------- 
A|--7------7-7-7-7-4-4-4-4-4-4-4-4-4-4-4-4-4-4-4-4-4-4-4-4-4-4-4-4- 
E|--5------5-5-5-5-2-2-2-2-2-2-2-2-4-4-4-4-4-4-4-4-4-4-4-4-4-4-4-4- 
A|---------------------------------4-4-4-4-4-4-4-4-4-4-4-4-4-4-4-4- 
         PM.......................................................| 

B|------------------------------------------------------------------ 
G|------------------------------------------------------------------ 
D|------------------------------------------------------------------ 
A|--7-7-7-7-7-7-7-7-4-4-4-4-4-4-4-4-4-4-4-4-4-4-4-4-4-4-4-4-4-4-4-4- 
E|--5-5-5-5-5-5-5-5-2-2-2-2-2-2-2-2-4-4-4-4-4-4-4-4-4-4-4-4-4-4-4-4- 
A|----------------------------------4-4-4-4-4-4-4-4-4-4-4-4-4-4-4-4- 
  PM...............................................................| 

B|---------------------------------------------------------------------- 
G|---------------------------------------------------------------------- 
D|----------7---6-------------4---3--------------6-6-6-----------6-6-6-- 
A|-------------------------------------4-4-4-4-4-------4-4-4-4-4-------- 
E|--5-5-5-5-----------2-2-2-2---2------4-4-4-4-4-------4-4-4-4-4-------- 
A|------------5------------------------4-4-4-4-4-------4-4-4-4-4-------- 

B|------------------------------------------------------------------ 
G|------------------------------------------------------------------ 
D|--7---7-7-7---7..4-4-4-4-4----4-4---------------------------------- 
A|--7---7-7-7---7..4-4-4-4-4----4-4-4-4-4-224-4-2-4---4-4-4-4-2-2-2-- 
E|--5---5-5-5---5..2-2-2-2-2----2-2-4-4-4-224-4-2-4---4-4-4-4-2-2-2-- 
A|---------------------------------4-4-4-224-4-2-4---4-4-4-4-2-2-2-- 
                                 PM...............................| 

B|------4-------------7-------------4--------/10--------- 
G|------6-------------9-------------6--------/12--------- 
D|------6-------------9-------------6--------/12--------- 
A|--4---4--------/7---7---------4---4--------/10--------- 
E|--4---4--------/7---7---------4---4--------/10--------- 
A|--4---4--------/7---7---------4---4--------/10--------- 

B|------------------------------------------------------------------- 
G|------------------------------------------------------------------- 
D|------------------------------------------------------------------- 
A|--2---------------2---------------2---------------2-4-4-4-2-4-5---- 
E|--2-4-4-4---4-4-4-2-4-4-4---4-4-4-2-4-4-4---4-4-4-2-4-4-4-2-4-5---- 
A|--2-4-4-4-554-4-4-2-4-4-4-554-4-4-2-4-4-4-554-4-4-2-4-4-4-2-4-5---- 
    PM.............| |.............| |.............| 

B|----------0---------------0---------------0---------------0---------- 
G|----------0---------------0---------------0---------------0---------- 
D|----------0---------------0---------------0---------------0---------- 
A|--2-4---4---4---4-2-4---4---4---4-2-4---4---4---4-2-4---4---4---4-4-- 
E|--2-4---4---4---4-2-4---4---4---4-2-4---4---4---4-2-4---4---4---4-4-- 
A|--2-4---4---4---4-2-4---4---4---4-2-4---4---4---4-2-4---4---4---4-4--

Rock  

Pentru a putea vota sau adăuda comentarii, e nevoie să te autentifici sau înregistrezi .