Coma – In mine in soapta

Contribuție:  micutzu


Tab pus pe pagina de myspace a trupei coma de catre calin,chitaristul formatiei.

B|-------|--------------------------------------------------- 
G|-------|--------------------------------------------------- 
D|-------|--------------------------------------------------- 
A|--5-4--|--2---2-2---2---2--5-4---7---7-7---7-5-5---5-5-5--- 
E|--5-4--|--2---2-2---2---2--5-4---7---7-7---7-3-3---3-3-3--- 
B|--3-2--|--0---0-0---0---0--3-2---5---5-5---5--------------- 


B|--------------------------------------------------- 
G|--------------------------------------------------- 
D|--------------------------------------------------- 
A|--2---2-2---2---2--5-4---7---7-7---7-5-5---5-5-5--- 
E|--2---2-2---2---2--5-4---7---7-7---7-3-3---3-3-3--- 
B|--0---0-0---0---0--3-2---5---5-5---5--------------- 


B|----------------------- 
G|----------------------- 
D|----------------------- 
A|--2-------------4------ 
E|--2-------------------- 
B|--0-----------0-3------ 
              PM.| 

B|----------------------------------------- 
G|----------------------------------------- 
D|--------0-------------0----5--5—5-4---4-- 
A|-----2-------2-----2--------------------- 
E|----------------3----------3--3—3-2---2-- 
B|--0-------------------------------------- 


B|------------------------------------------------------------------------ 
G|------------------------------------------------------------------------ 
D|--0-0---0-0---0-0---0-0---0-0-0-0-4-4---4-4---4-4---4-4---4-4---4-4-4-4- 
A|--2-2---2-2---2-2---2-2---2-2-2-2-5-5---5-5---5-5---5-5---5-5---5-5-5-5- 
E|--2-2---2-2---2-2---2-2---2-2-2-2-5-5---5-5---5-5---5-5---5-5---5-5-5-5- 
B|--0-0---0-0---0-0---0-0---0-0-0-0-3-3---3-3---3-3---3-3---3-3---3-3-3-3- 


B|------------------------------------------------------ 
G|------------------------------------------------------ 
D|--5-5---5-5---5-5---5-5-5-5-4-4-4-4-2-2-2-2-2-2-2----- 
A|--5-5---5-5---5-5---5-5-5-5-5-5-5-5-2-2-2-2-2-2-2-5-4- 
E|--3-3---3-3---3-3---3-3-3-3-3-3-3-3-0-0-0-0-0-0-0-5-4- 
B|--------------------------------------------------3-2- 

B|---------------------------------------------------------- 
G|---------------------------------------------------------- 
D|--4-4-4-4-4-4-4-4-4-4-4-4-4-4-4-4-7-7-7-7-7-7-7-7-7-7-7-7- 
A|--4-4-4-4-4-4-4-4-4-4-4-4-4-4-4-4-7-7-7-7-7-7-7-7-7-7-7-7- 
E|--2-2-2-2-2-2-2-2-2-2-2-2-2-2-2-2-5-5-5-5-5-5-5-5-5-5-5-5- 
B|---------------------------------------------------------- 


B|---------<5>---------<5>-----<5>---------<5>---------<5>-----<5>- 
G|---------<5>---------<5>-----<5>---------<5>---------<5>-----<5>- 
D|---------<5>---------<5>-----<5>---------<5>---------<5>-----<5>- 
A|--2-2---2-----2-2---2-----2-2-----2-2---2-----2-2---2-----2-2---- 
E|--2-2---2-----2-2---2-----2-2-----2-2---2-----2-2---2-----2-2---- 
B|--0-0---0-----0-0---0-----0-0-----0-0---0-----0-0---0-----0-0---- 


B|----------------------------------------------------------------- 
G|----------------------------------------------------------------- 
D|--4-4-4-4-4-4-4-4-4-4-4-4-4-4-4-4-7-7-7-7-7-7-7-7-7-7-7-7-2------ 
A|--4-4-4-4-4-4-4-4-4-4-4-4-4-4-4-4-7-7-7-7-7-7-7-7-7-7-7-7-2------ 
E|--2-2-2-2-2-2-2-2-2-2-2-2-2-2-2-2-5-5-5-5-5-5-5-5-5-5-5-5-0------ 
B|----------------------------------------------------------------- 

Final: 
B|----------------------------------------- 
G|----------------------------------------- 
D|----------------------------------------- 
A|--2---2-2---2---2--5-4---7---7-7-7-7-6--- 
E|--2---2-2---2---2--5-4---7---7-7-7-7-6--- 
B|--0---0-0---0---0--3-2---5---5-5-5-5-4---

Rock  

Comentarii

Pentru a putea vota sau adăuda comentarii, e nevoie să te autentifici sau înregistrezi .