Pistol cu capse – Un minut

(3 voturi)

Contribuție:  ghit razvan


INTRO

BASS

G|-------------------------|---------------------------|
D|-------------------------|-----------8---------------|
A|-------66-6--44-4--------|--------66---6--44-4-------|
E|--77-7-------------22-4-2|--77-7---------------22-4-2|


CHITARA SOLO:

e|-----------------------------|------------------------------|
B|-----------------------------|------------------------------|
G|--4--4-3---------------------|--44-6-4--33-4--4--888--66-4--|
D|-----------6-4-6--6----------|------------------------------|
A|--------------------44-6-4---|------------------------------|
E|----------------------------7|------------------------------|

CHITARA RITM: bataie de ska pe aceste acorduri

    B   D#m   C#m   F#
e|--7----6-----4-----2--|
B|--7----7-----5-----2--|
G|--8----8-----6-----3--|
D|--9----8-----6-----4--|
A|--9----6-----4-----4--|
E|--7----------------2--|



B  D#m      C#m   F#              B    D#m     C#m
Incet se sting luminile si-orasul pare tot mai trist 
   F#           B        D#m   C#m
Si linistea-nconjoara fiecare ceas 
   F#      B          D#m   C#m
Si fiecare vorba e un bun ramas
       F#              B   D#m   C#m   F#
Da, da e un bun ramas.


Incerc s-ascund toate gandurile care-mi trec prin minte-acum 
Mai mult ca niciodata timpu'-a stat in loc 
Cum poti intr-o secunda doar sa uiti de tot, de tot 


   PE REFREN:

    E5   F#5   G#5   B5
e|-----------------------|
B|-----------------------|
G|-----------------------|
D|--2-----4-----6----9---|
A|--2-----4-----6----9---|
E|--0-----2-----4----7---|


    
   E5     F#5            G#5
R: Si-un minut nu-i niciodata 
   E5        F#5           G#5
   Mult prea mult ca sa-ntelegi 
   E5       F#5             G#5           B5
   S-au schimbat prea multe chiar nu vezi ca gresesti
   E5    F#5           B
   Multe vise ai sa le pierzi

SE REPETA INTRO

Intr-o noua zi, o alta dimineata
Poate-ai vrea sa stii 
Ca nu pot sa-nteleg 
Si nu vreau sa mai cred 
Ca tot ce-i bun am sa pierd 
Ca nu mai stiu sa iert 
Ca printre ganduri si vorbe iar ma pierd... 

BRIDGE: pe ritm alert de ska: B D#m C#m D#m x2

SOLO:

CHITARA I

e|-------------------------------------------------|--------------------------------|
B|-------------------------------------------------|--------------------------------|
G|--------3-3h4-444-3-4--6--4-3-4-3---6--4-3-4-3---|-------3-3h4-444-333-----3333-4-|
D|--6-4-6---------------------------6------------6-|-6-4-6---------------6----------|
A|-------------------------------------------------|--------------------------------|
E|-------------------------------------------------|--------------------------------|

e|-------------------------------------------------|----------------------------------------|
B|-------------------------------------------------|----------------------------------------|
G|--------3-3h4-444-3-4--6--4-3-4-3---6--4-3-4-3---|-------3-3h4-444-333--------------------|
D|--6-4-6---------------------------6------------6-|-6-4-6---------------6---66--44-44--22--|
A|-------------------------------------------------|----------------------------------------|
E|-------------------------------------------------|----------------------------------------|

    
CHITARA II:  E5 F#5 G#5

REF:

OUTRO: B D#m C#m F# X2 
       G#5

Pop  

Comentarii

Pentru a putea vota sau adăuda comentarii, e nevoie să te autentifici sau înregistrezi .