Alexandru Andrieș – Cea mai frumoasa zi

Contribuție:  floydp


Intro/versuri:


  Cm           Dm7b5 
e|-----3------|------1------|
B|-----1------|----1-1------|
G|---0--0-----|--1----1-----|
D|-1----------|-0-----------|
A|------------|-------------|
E|------------|-------------|
     Un fel de-a  mai lungi

  Bb           Ebmaj7
e|------------|-----3-------|
B|-----3------|-----3-------|
G|-----3------|---3--3------|
D|---3---3----|-1-----------|
A|-1----------|-------------|
E|------------|-------------|
   Cea mai      frumoasa zi

  Cm7          F#69   
e|------------|-------------|
B|-----4------|-----4-------|
G|-----3------|-----3-------|
D|---5---5----|---4---4-----|
A|-3----------|-------------|
E|------------|-4-----------|
   Ar fi daca   m-ai putea

  A#6          Cm7
e|------------|-------------|
B|-----3------|------4------|
G|-----0------|------3------|
D|---3--3-----|---5---5-----|
A|------------|--3----------|
E|-3----------|-------------|
 
      Min ----- ti.
Am da ceasul inapoi,ai fierbe doua oua moi
Mi-ai spune ca-n casa,suntem doar noi
.
Tacerea te-ar ajuta,sa scapi de-ntrebarea mea
Din toate-ntrebarile,cea mai grea
Cand seara s-ar face gri,nu te-ai mai putea stapani
Din baie la telefon,ai vorbi.
Cu glasul intunecat,cu aerul imbufnat
Orice numai sa ma vezi,plecat.
Si-atunci te-ntrebi mai stii,cea mai frumoasa zi?
A fost la-nceput cand nu ma puteai mintï.

Final:
  A#6          Cm7
e|------------|-------------|
B|-----3------|------4------|
G|-----3------|------3------|
D|---3--3-----|---5---5-----|
A|------------|--3----------|
E|-3----------|-------------|

  A#6          Cm7
e|------------|-------------|
B|-----3------|------4------|
G|-----3------|------3------|
D|---3--3-----|---5---------|
A|------------|--3----------|
E|-3----------|-------------|

Blues  

Ultima actualizare:  17.01.2010

Pentru a putea vota sau adăuda comentarii, e nevoie să te autentifici sau înregistrezi .