Anonim – Dansul Pinguinului

(9 voturi)

Contribuție:  ge3ursu


Am modificat tab-ul. Rog pe cei carora nu le place sa isi abtina opiniile. Eu v-am dat 
o idee, restul improvizati cum va face placere. Mie imi suna foarte bine si multi din 
cei care m-au ascultat, au apreciat. La urma urmei, fiecare il face cum vrea. Totusi 
daca tot considerati ca nu suna cum trebuie, am sa va dac un video. 



Am plecat de pe tasta 6 pentru cei ce nu au acces lejer la notele de sus 
(ex 15,16) insa pentru cei cu electrica recomand sa plece de pe 9 (adica 
la fiecare cifra din tabulatura adunati 3). Suna mult mai frumos !

      Daca nu va descurcati: ge3ursu (mess)

Sper sa va fie de folos si in caz ca va place puteti sa dati un vot (pt useri) !  





E||-----------------------|--------------------------|-----------------------|
B||-----------------------|--------------------------|-----------------------|
G||---6-6------8--9-------|--8--9---11-9-11----------|--8---6---5-5--6--8----|
D||-----------------------|--------------------------|-----------------------|
A||-----------------------|--------------------------|-----------------------|
E||-----------------------|--------------------------|-----------------------|


-------------------------||
-------------------------||
---5--6-6-6--------------||     x 2 !
-------------------------||
-------------------------||
-------------------------||

E||----------------4------|-----4-------7--5--7------|---4-------------------|
B||---5-5------7----------|--7-----------------------|------7---4-4--5--7----|
G||-----------------------|--------------------------|-----------------------|
D||-----------------------|--------------------------|-----------------------|
A||-----------------------|--------------------------|-----------------------|
E||-----------------------|--------------------------|-----------------------|


-------------------------||
--4--5-5-5---------------||
-------------------------||     x 2 !
-------------------------||
-------------------------||
-------------------------||

Iar pentru trecerea de pe coarda B pe coarda G :


E||------------------------||
B||---9-7-9----------------||
G||------------------------|| SI TRECETI LA PRIMA PARTE !
D||------------------------||
A||------------------------||
E||------------------------||

Dance  

Ultima actualizare:  22.06.2012

Comentarii

Pentru a putea vota sau adăuda comentarii, e nevoie să te autentifici sau înregistrezi .