Oana Sârbu – Lumea Basmelor (solo refren)

Contribuție:  curcubeaua


Linia melodica de pe refren...c'am asa suna...:)

E:------------------------------------------
B:----------------------------------1-1h3-3-
G:0-2-3-0-3--3-2--2-0--0-2-3-0-3--3---------
D:------------------------------------------
A:------------------------------------------
E:------------------------------------------

|-----------------------------------------|
|-3-1-3---4--4-3--3--------1-3-1----------|
|-------3-----------3--3-3-------3-2----0-|
|-------------------------------------3---|
|-----------------------------------------|
|-----------------------------------------|

Pop  

Pentru a putea vota sau adăuda comentarii, e nevoie să te autentifici sau înregistrezi .