Compact – Te voi iubi mereu

(3 voturi)

Contribuție:  anonim125


                 
Mii si mii de ore am stat si m-am gandit
                                  
La clipa aceea-n care, noi doi ne-am despartit
                         
Cu acelasi tren de seara, cu care am plecat
                                      
As vrea sa vin acasa, sa-mi spui ca m-ai iertat

                             
 Nu am uitat vreodata, nimic din ce ti-am zis
                                 
 Si cred ca mai tii minte, tot ce ti-am promis
                       
 Nu vom stii niciodata, nimic din ce va fi,
                                
 Poate intr-o alta viata, tot eu te voi iubi

Solo
e-|--------10-10-------|-------10-14-15----|-------10-10vvv-10-12----|
B-|-s12-13-------10-12-|-12-13----------15-|-12-13-------------------|
G-|--------------------|-------------------|----------------------12-|
D-|--------------------|-------------------|-------------------------|
A-|--------------------|-------------------|-------------------------|
E-|--------------------|-------------------|-------------------------|

e-|------------------------------------------------------------------|
B-|-s13-12-10----10vvvv----------------------------------------------|
G-|-----------12-----------------------------------------------------|
D-|------------------------------------------------------------------|
A-|------------------------------------------------------------------|
E-|------------------------------------------------------------------|

                       
Am vrut sa uit de tine, dar nu mi-a fost usor
                                 
Fiindca noaptea mi te aduce in fata ochilor
                        
Visez ca te am in brate, iar tu imi spui incet
                                        
De-ar fi sa pleci o viata, eu tot am sa te astept

                             
 Nu am uitat vreodata, nimic din ce ti-am zis
                                 
 Si cred ca mai tii minte, tot ce ti-am promis
                       
 Nu vom stii niciodata, nimic din ce va fi,
                                
 Poate intr-o alta viata, tot eu te voi iubi

          
A trecut o vreme,
          
Hai sa incercam
                
Sa fim doar eu cu tine,
           
Impreuna sa visam

                             
 Nu am uitat vreodata, nimic din ce ti-am zis
                                 
 Si cred ca mai tii minte, tot ce ti-am promis
                       
 Nu vom stii niciodata, nimic din ce va fi,
                                
 Poate intr-o alta viata, tot eu te voi iubi

Outro:

e-|--------10-10-------|-------10-14-15----|-------10-10vvv-10-12----|
B-|-s12-13-------10-12-|-12-13----------15-|-12-13-------------------|
G-|--------------------|-------------------|----------------------12-|
D-|--------------------|-------------------|-------------------------|
A-|--------------------|-------------------|-------------------------|
E-|--------------------|-------------------|-------------------------|

e-|--------------------|-------10-10-------|-------10-14-15----------|
B-|-s13-12-10----10vvv-|-12-13-------10-12-|-12-13----------15-------|
G-|-----------12-------|-------------------|-------------------------|
D-|--------------------|-------------------|-------------------------|
A-|--------------------|-------------------|-------------------------|
E-|--------------------|-------------------|-------------------------|

e-|-------10-10vvv-10-12----|----------------------------------------|
B-|-12-13-------------------|-s13-12-10----10-8vvvv------------------|
G-|----------------------12-|-----------12---------------------------|
D-|-------------------------|----------------------------------------|
A-|-------------------------|----------------------------------------|
E-|-------------------------|----------------------------------------|

Rock  

Pentru a putea vota sau adăuda comentarii, e nevoie să te autentifici sau înregistrezi .

Acorduri