Fără Zahăr – Erată (S-avem pardon) (bass)

(2 voturi)

Contribuție:  Fara Dan


Tabulatura pentru chitara bas asa cum este inregistrata pe albumul Neamul lui Penes
Curcanul


Strofa:
   C    Am   F    G
G---------------------------------
D---------------------------------
A--3------------------------------
E-------5----1----3---------------

Outro:
   c            Am            F            G       
G-------------|-------------|------------|--------|-
D-------5-3-2-|-------------|-----3-2----|-----5--|-
A--3--3-------|-------2-3-5-|---------3--|---5----|-
E-------------|-5---5-------|-1-1--------|-3------|-

   c            Am            F     G     C       
G-------------|-------------|-----|-----|---------|-
D-------5-3-2-|-------------|---3-|---5-|---------|-
A--3--3-------|-------2-3-5-|-----|-----|-----2-3-|-
E-------------|-5---5-------|-1---|-3---|-3-5-----|-


Enjoy!

Ultima actualizare:  08.10.2010

Pentru a putea vota sau adăuda comentarii, e nevoie să te autentifici sau înregistrezi .