Anonim – Dansul pinguinului

(1 voturi)

Contribuție:  Fuzzy


Chitara
     E  Q    E  E  Q    E     E  Q    E  E  Q    E     E  Q.     E  Q    E   
E||------------------------|------------------------|-----------------------|
B||----------------0-------|--0--3----1--3--0-------|-----------------------|
G||-----0----0--2-------0--|---------------------2--|--0---------0--2----2--|
D||--0---------------------|------------------------|-----4-----------------|
A||------------------------|------------------------|-----------------------|
E||------------------------|------------------------|-----------------------|


  E  Q    Q    Q.        E  Q    E  E  Q    E     E  Q    E  E  Q    E   
----------------------|------------------------|------------------------|
----------------------|----------------0-------|--0--3----1--3--0-------|
-----0----0----0------|-----0----0--2-------0--|---------------------2--|
--4-------------------|--0---------------------|------------------------|
----------------------|------------------------|------------------------|
----------------------|------------------------|------------------------|


  E  Q.     E  Q    E     E  Q    Q    E  E  E     E  Q    E  E  Q    E   
-----------------------|------------------------|------------------------|
-----------------------|------------------0-----|--0---------------------|
--0---------0--2----2--|-----0----0----0-----2--|----------------0-------|
-----4-----------------|--4---------------------|-----2----2--4-------2--|
-----------------------|------------------------|------------------------|
-----------------------|------------------------|------------------------|


  E  Q    E  E  Q    E     E  Q.     E  Q    E     E  Q    Q    Q.      
------------------------|-----------------------|----------------------|
-----0-------0----------|-----------------------|----------------------|
--0-------2-----0-------|-----------------------|----------------------|
---------------------4--|--2--1------2--4----4--|--1--2----2----2------|
------------------------|-----------------------|----------------------|
------------------------|-----------------------|----------------------|


  E  Q    E  E  Q    E     E  Q    E  E  Q    E     E  Q.     E  Q    E   
------------------------|------------------------|-----------------------|
------------------------|-----0-------0----------|-----------------------|
----------------0-------|--0-------2-----0-------|-----------------------|
--1--2----2--4-------2--|---------------------4--|--2--1------2--4----4--|
------------------------|------------------------|-----------------------|
------------------------|------------------------|-----------------------|


  E  Q    Q    Q.        E  Q    E  E  Q    E     E  Q    E  E  Q    E   
----------------------|------------------------|------------------------|
----------------------|----------------0-------|--0--3----1--3--0-------|
----------------------|-----0----0--2-------0--|---------------------2--|
--1--2----2----2------|--0---------------------|------------------------|
----------------------|------------------------|------------------------|
----------------------|------------------------|------------------------|


  E  Q.     E  Q    E     E  Q    Q    Q.        E  Q    E  E  Q    E   
-----------------------|----------------------|------------------------|
-----------------------|----------------------|----------------0-------|
--0---------0--2----2--|-----0----0----0------|-----0----0--2-------0--|
-----4-----------------|--4-------------------|--0---------------------|
-----------------------|----------------------|------------------------|
-----------------------|----------------------|------------------------|


  E  Q    E  E  Q    E     E  Q.     E  Q    E     E  Q    Q    E  E  E   
------------------------|-----------------------|------------------------|
--0--3----1--3--0-------|-----------------------|------------------0-----|
---------------------2--|--0---------0--2----2--|-----0----0----0-----2--|
------------------------|-----4-----------------|--4---------------------|
------------------------|-----------------------|------------------------|
------------------------|-----------------------|------------------------|


  E  Q    E  E  Q    E     E  Q    E  E  Q    E     E  Q.     E  Q    E   
------------------------|------------------------|-----------------------|
--0---------------------|-----0-------0----------|-----------------------|
----------------0-------|--0-------2-----0-------|-----------------------|
-----2----2--4-------2--|---------------------4--|--2--1------2--4----4--|
------------------------|------------------------|-----------------------|
------------------------|------------------------|-----------------------|


  E  Q    Q    Q.        E  Q    E  E  Q    E     E  Q    E  E  Q    E   
----------------------|------------------------|------------------------|
----------------------|------------------------|-----0-------0----------|
----------------------|----------------0-------|--0-------2-----0-------|
--1--2----2----2------|--1--2----2--4-------2--|---------------------4--|
----------------------|------------------------|------------------------|
----------------------|------------------------|------------------------|


  E  Q.     E  Q    E     E  Q    Q    Q.        E  Q    E  E  Q    E   
-----------------------|----------------------|------------------------|
-----------------------|----------------------|----------------0-------|
-----------------------|----------------------|-----0----0--2-------0--|
--2--1------2--4----4--|--1--2----2----2------|--0---------------------|
-----------------------|----------------------|------------------------|
-----------------------|----------------------|------------------------|


  E  Q    E  E  Q    E     E  Q.     E  Q    E     E  Q    Q    Q.      
------------------------|-----------------------|----------------------|
--0--3----1--3--0-------|-----------------------|----------------------|
---------------------2--|--0---------0--2----2--|-----0----0----0------|
------------------------|-----4-----------------|--4-------------------|
------------------------|-----------------------|----------------------|
------------------------|-----------------------|----------------------|


  E  Q    E  E  Q    E     E  Q    E  E  Q    E     E  Q.     E  Q    E   
------------------------|------------------------|-----------------------|
----------------0-------|--0--3----1--3--0-------|-----------------------|
-----0----0--2-------0--|---------------------2--|--0---------0--2----2--|
--0---------------------|------------------------|-----4-----------------|
------------------------|------------------------|-----------------------|
------------------------|------------------------|-----------------------|


  E  Q    Q    E  E  E     E  Q    E  E  Q    E     E  Q    E  E  Q    E   
------------------------|------------------------|------------------------|
------------------0-----|--0---------------------|-----0-------0----------|
-----0----0----0-----2--|----------------0-------|--0-------2-----0-------|
--4---------------------|-----2----2--4-------2--|---------------------4--|
------------------------|------------------------|------------------------|
------------------------|------------------------|------------------------|


  E  Q.     E  Q    E     E  Q    Q    Q.        E  Q    E  E  Q    E   
-----------------------|----------------------|------------------------|
-----------------------|----------------------|------------------------|
-----------------------|----------------------|----------------0-------|
--2--1------2--4----4--|--1--2----2----2------|--1--2----2--4-------2--|
-----------------------|----------------------|------------------------|
-----------------------|----------------------|------------------------|


  E  Q    E  E  Q    E     E  Q.     E  Q    E     E  Q    Q    Q.      
------------------------|-----------------------|----------------------|
-----0-------0----------|-----------------------|----------------------|
--0-------2-----0-------|-----------------------|----------------------|
---------------------4--|--2--1------2--4----4--|--1--2----2----2------|
------------------------|-----------------------|----------------------|
------------------------|-----------------------|----------------------|


  E  Q    E  E  Q    E     E  Q    E  E  Q    E     E  Q.     E  Q    E   
------------------------|------------------------|-----------------------|
----------------0-------|--0--3----1--3--0-------|-----------------------|
-----0----0--2-------0--|---------------------2--|--0---------0--2----2--|
--0---------------------|------------------------|-----4-----------------|
------------------------|------------------------|-----------------------|
------------------------|------------------------|-----------------------|


  E  Q    Q    Q.        E  Q    E  E  Q    E     E  Q    E  E  Q    E   
----------------------|------------------------|------------------------|
----------------------|----------------0-------|--0--3----1--3--0-------|
-----0----0----0------|-----0----0--2-------0--|---------------------2--|
--4-------------------|--0---------------------|------------------------|
----------------------|------------------------|------------------------|
----------------------|------------------------|------------------------|


  E  Q.     E  Q    E     E  Q    Q    E  E  E     E  Q    E  E  Q    E   
-----------------------|------------------------|------------------------|
-----------------------|------------------0-----|--0---------------------|
--0---------0--2----2--|-----0----0----0-----2--|----------------0-------|
-----4-----------------|--4---------------------|-----2----2--4-------2--|
-----------------------|------------------------|------------------------|
-----------------------|------------------------|------------------------|


  E  Q    E  E  Q    E     E  Q.     E  Q    E     E  Q    Q    Q.      
------------------------|-----------------------|----------------------|
-----0-------0----------|-----------------------|----------------------|
--0-------2-----0-------|-----------------------|----------------------|
---------------------4--|--2--1------2--4----4--|--1--2----2----2------|
------------------------|-----------------------|----------------------|
------------------------|-----------------------|----------------------|


  E  Q    E  E  Q    E     E  Q    E  E  Q    E     E  Q.     E  Q    E   
------------------------|------------------------|-----------------------|
------------------------|-----0-------0----------|-----------------------|
----------------0-------|--0-------2-----0-------|-----------------------|
--1--2----2--4-------2--|---------------------4--|--2--1------2--4----4--|
------------------------|------------------------|-----------------------|
------------------------|------------------------|-----------------------|


  E  Q    Q    Q.        E  Q    E  E  Q    E     E  Q    E  E  Q    E   
----------------------|------------------------|------------------------|
----------------------|----------------0-------|--0--3----1--3--0-------|
----------------------|-----0----0--2-------0--|---------------------2--|
--1--2----2----2------|--0---------------------|------------------------|
----------------------|------------------------|------------------------|
----------------------|------------------------|------------------------|


  E  Q.     E  Q    E     E  Q    Q    Q.        E  Q    E  E  Q    E   
-----------------------|----------------------|------------------------|
-----------------------|----------------------|----------------0-------|
--0---------0--2----2--|-----0----0----0------|-----0----0--2-------0--|
-----4-----------------|--4-------------------|--0---------------------|
-----------------------|----------------------|------------------------|
-----------------------|----------------------|------------------------|


  E  Q    E  E  Q    E     E  Q.     E  Q    E     E  Q    Q    E  E  E   
------------------------|-----------------------|------------------------|
--0--3----1--3--0-------|-----------------------|------------------0-----|
---------------------2--|--0---------0--2----2--|-----0----0----0-----2--|
------------------------|-----4-----------------|--4---------------------|
------------------------|-----------------------|------------------------|
------------------------|-----------------------|------------------------|


  E  Q    E  E  Q    E     E  Q    E  E  Q    E     E  Q.     E  Q    E   
------------------------|------------------------|-----------------------|
--0---------------------|-----0-------0----------|-----------------------|
----------------0-------|--0-------2-----0-------|-----------------------|
-----2----2--4-------2--|---------------------4--|--2--1------2--4----4--|
------------------------|------------------------|-----------------------|
------------------------|------------------------|-----------------------|


  E  Q    Q    Q.        E  Q    E  E  Q    E     E  Q    E  E  Q    E   
----------------------|------------------------|------------------------|
----------------------|------------------------|-----0-------0----------|
----------------------|----------------0-------|--0-------2-----0-------|
--1--2----2----2------|--1--2----2--4-------2--|---------------------4--|
----------------------|------------------------|------------------------|
----------------------|------------------------|------------------------|


  E  Q.     E  Q    E     E  Q    Q    Q.       
-----------------------|----------------------||
-----------------------|----------------------||
-----------------------|----------------------||
--2--1------2--4----4--|--1--2----2----2------||
-----------------------|----------------------||
-----------------------|----------------------||




Duration Legend
---------------
W - whole
H - half
Q - quarter
E - 8th
S - 16th
T - 32nd
X - 64th
. - note dotted
|-n-|  - n-tuplets


Tablature Legend
----------------
L - tied note
x - dead note
g - grace note
(n) - ghost note
> - accentuded note
NH - natural harmonic
AH - artificial harmonic
TH - tapped harmonic
SH - semi harmonic
PH - pitch harmonic
h - hammer on
p - pull off
b - bend
br - bendRelease
pb - preBend
pbr - preBendRelease
brb - bendReleaseBend
n/ - tremolo bar dip
n - tremolo bar dive
-/n - tremolo bar Release up
/n - tremolo bar inverted dip
/n - tremolo bar return
-n - tremolo bar Release down
S - shift slide
s - legato slide
/ -  slide into from below or out of upwards
 -  slide into from above or out of downwards
~ - vibrato
W - wide vibrato
tr - trill
TP - tremolo picking
T - tapping
S - slap
P - pop
< - fade in
^ - brush up
v - brush down

Ultima actualizare:  01.11.2010

Pentru a putea vota sau adăuda comentarii, e nevoie să te autentifici sau înregistrezi .