Alternosfera – Femeia nordica

(4 voturi)

Contribuție:  psihopat


In primul rand, baietii pentru piesa asta au chitarile si bassul acordate intr-un acordaj 
atipic. Tabul l-am facut pentru drop D adica:

D, A, D, G, B, E - adica drop D

Acordurile pentru piesa sunt urmatoarele:

Gsus2 (557xxx)
D#sus2 (113xxx)
Fsus2 (335xxx)
Csus2 (101012xxx)


Intro pian: Gsus2, D#sus2, Gsus2, Fsus2
Intro chitara: 

e|-------------------------------------------------------------------|
B|-------------------------------------------------------------------|
G|-------------------------------------------------------------------| X 4
D|--------------------------12-12-12-12-12-12-12---------------------|
A|--12-12-12-12-12-12-12-10----------------------10------------------|
D|-------------------------------------------------------------------|

iar a 5 oara se canta astfel:

e|-------------------------------------------------------------------|
B|-------------------------------------------------------------------|
G|-------------------------------------------------------------------|
D|-------------------------------------------------------------------|
A|--12-12-12-12-12-12-12-12-13-13-13-12-12-12-10-10------------------|
D|-------------------------------------------------------------------|

Dupa care intra vocea:


Gsus2           D#sus2
Stai,stai langa mine

Gsus2           D#sus2
Stai,ca-n prima zi

         D#sus2
Strop de lumina
                Fsus2
Sa-mi joci pe retina
           Csus2
In casa pustie
        D#sus2  Fsus2
Cum as trai?

Fire-mi salbatic cersete
Pana la nord inc-un pas
Tot ce ingheata 
Se si topeste
Din tot ce mai doare 
Doar tu ai ramas
 
Csus2    D#sus2   Gsus2  Fsus2
Val de nervi purtat prin vene

Csus2   D#sus2      Gsus2   Fsus2  
Te-a ascuns     noaptea sub gene
Capu-i rasucit in noduri
Mi-a furat femeia nordul

Solo post refren:

e|----------------------------------------------------------------------------------------|
B|--------------------15------------------15------------------15--------------------------|
G|---/15-14h15-14--12----/15-14h15-14--12----/15-14h15-14--12-----/15-14h15-14--12--------|
D|----------------------------------------------------------------------------------------|
A|----------------------------------------------------------------------------------------|
D|----------------------------------------------------------------------------------------|

Nordul mi-aduce apusul
Ninsoarea mi-asterne s-adorm
Imi joci pe retina
Strop de lumina
In casa pustie 
In zori am sa mor

Refren X1

Pe partea 

Mi-a furat femeia nordul, mi-a furat - Solo post refren x 8

_______________________________________________________________

Spor la cantat si invatat. Tabul este pentru o singura chitara (piesa originala este cantata in 2 chitari) 99% tabul este corect, pentru ritmul de chitara ascultati in particular chitara acustica.

Va multumesc!

Ultima actualizare:  14.06.2013

Comentarii

Pentru a putea vota sau adăuda comentarii, e nevoie să te autentifici sau înregistrezi .

Acorduri