Blazzaj – Blazzaj

(3 voturi)

Contribuție:  Bogdan Alin


De pe albumul Blazzaj! din '98


Chestii cu si foarte despre ei pe:

wikipedia.org/wiki/Blazzaj
myspace.com/blazzaj
blazzaj.ro/

Nenea Horea Crisovan e pepsi asa ca nu ma mai chinui sa transcriu si chitara


hai cu mama!




tema principala sax:

E|-----------------------------------------------------------------
B|-----------------------------------------------------------------
G|-----------------------------------------------------------------
D|-----------------------------------------------------------------
A|--------7--7--6--7--9--6--7-----------7--7------9--10--12--10--9-
E|--0--5-----------------------8--7--5--------12-------------------

--------------------------------------------------------------
--------------------------------------------------------------
--------------------------------------------------------------
--------------------------------------------------------------
--------------7--7--6--7--9--6--7-----------------------------
-12--8--7--5-----------------------8--7--5--8--7--5--0--3--5--  "ha ha" si se repeta



si tot sax:

E|------------------------------------------------------
B|------------------------------------------------------
G|------------------------------------------------------
D|--12--10--------------10--12--------------------------
A|----------12--10--12----------10--12------10--10--12--
E|--------------------------------------12--------------





Tab creat cu guitartabcreator.com
Iar daca imi permite timpu, poate fac si un .gp


O seara buna

Hip-hop  

Pentru a putea vota sau adăuda comentarii, e nevoie să te autentifici sau înregistrezi .