Trooper – Amintiri (solouri)

(5 voturi)

Contribuție:  Stefan the RocKer


Primul solo:

Eb----------------------------------------------------------------------
Bb----------------------------------------------------------------------
Gb----6^7^6--7~--7-6---------------------------4--6--6/7~---------------
Db-------------------------7--4--4/9~------2/4--------------------------
Ab----------------------------------------------------------------------
Eb----------------------------------------------------------------------


Eb----------------------------------------------------------------------
Bb----------------------------------------------------------------------
Gb---6--7--7^9---9-9-9-7-6-7----6^7^6-----------------------------------
Db---------------------------------------------9--7--9~-----------------
Ab----------------------------------------------------------------------
Eb----------------------------------------------------------------------


Eb----------------------------------------------------------------------
Bb------------------------10-------------------------------10---12~-----
Gb-------7---9--9/11---------11^9---7---9~-----9/11---------------------
Db---9------------------------------------------------------------------
Ab----------------------------------------------------------------------
Eb----------------------------------------------------------------------


Eb----------------------------------------------------------------------
Bb------12-12-12--10--------------10------------------------------------
Gb-----------------------------11----------11~--------------------------
Db----------------------------------------------------------------------
Ab----------------------------------------------------------------------
Eb----------------------------------------------------------------------


Al doilea solo:

Eb----------------------------------------------------------------------
Bb-------------------------------------------7^8--7--7^8--10---8--------
Gb----------------------7--7---7^9---7----------------------------------
Db----------7---7^9-----------------------------------------------------
Ab----7--9--------------------------------------------------------------
Eb----------------------------------------------------------------------


Eb---------------------------------12----12^14-----14--14--14---12------
Bb----7---------------12----15------------------------------------------
Gb--------9~------------------------------------------------------------
Db----------------------------------------------------------------------
Ab----------------------------------------------------------------------
Eb----------------------------------------------------------------------


Eb-----------------------------------17 )  19  ( 17----15---14----------
Bb---15----12---12^15----12---------------------------------------------
Gb----------------------------------------------------------------------
Db----------------------------------------------------------------------
Ab----------------------------------------------------------------------
Eb----------------------------------------------------------------------


Eb----------------------17 ) 19---19----19---19----17---15---14---------
Bb---17---15---17-------------------------------------------------------
Gb----------------------------------------------------------------------
Db----------------------------------------------------------------------
Ab----------------------------------------------------------------------
Eb----------------------------------------------------------------------


Eb-------14---14--------------------------------------------------------
Bb---17------------17------15--17---15-----14--15---15^17---------------
Gb----------------------------------------------------------------------
Db----------------------------------------------------------------------
Ab----------------------------------------------------------------------
Eb----------------------------------------------------------------------


Eb----------------------------------------------------------------------
Bb--15---14---12--------------------12----15-------12---15--------------
Gb-------------------14---11---14---------------------------------------
Db----------------------------------------------------------------------
Ab----------------------------------------------------------------------
Eb----------------------------------------------------------------------


Eb---14----19--17---15---14----17---15---14---12--------15--14----------
Bb----------------------------------------------------------------------
Gb----------------------------------------------------------------------
Db----------------------------------------------------------------------
Ab----------------------------------------------------------------------
Eb----------------------------------------------------------------------


Eb--12--------14---12----------------12---------------------------------
Bb-------15-------------15---14-----------15---14---12---10---12--------
Gb----------------------------------------------------------------------
Db----------------------------------------------------------------------
Ab----------------------------------------------------------------------
Eb----------------------------------------------------------------------

    ***
Eb--19--17--15--14----17---15---14---12-------15--14--12--10------------
Bb----------------------------------------------------------------------
Gb----------------------------------------------------------------------
Db----------------------------------------------------------------------
Ab----------------------------------------------------------------------
Eb----------------------------------------------------------------------


Eb---14--12--10--9-----12--10--9-------10--9-------------9--------------
Bb---------------------------------12-----------12---10-----12--10------
Gb----------------------------------------------------------------------
Db----------------------------------------------------------------------
Ab----------------------------------------------------------------------
Eb----------------------------------------------------------------------


Eb---9------------------------------------------------------------------
Bb-------12---10---8-----12---10---8---------10-------------------------
Gb----------------------------------------11--------12---11---9---------
Db----------------------------------------------------------------------
Ab----------------------------------------------------------------------
Eb----------------------------------------------------------------------


Eb----------------------------------------------------------------------
Bb----------------------------------------------------------------------
Gb-----12---11---9-----------11---9------------9------------------------
Db--------------------12-------------12---11------12-----11--7/9--------
Ab----------------------------------------------------------------------
Eb----------------------------------------------------------------------


 ^ = Hammer on 
 ~ = Sustinut
 / = Slide up
 ) = Bend (up)
 ( = Bend (down)
 *** = De aici inainte, numai penaj rapid

Rock  

Pentru a putea vota sau adăuda comentarii, e nevoie să te autentifici sau înregistrezi .