Backstage Hero – Zile si nopti

(1 voturi)

Contribuție:  SpitFire


Backstage Hero - Zile si nopti


INTRO:

Chitara 1:
E|------------------------------------------------------|
B|------------------------------------------------------|\
G|----9--9--9--6----------------------------------------| X 1
D|----7--7--7--7--7/9-----------------------------------|/
A|----9--7--5--5--5/7-----------------------------------|
E|----9--0--5--5--5/7-----------------------------------|

(Dupa prima masura intra si chitara a doua si violoncelul)

Chitara 1:
E|------------------------------------------------------|
B|------------------------------------------------------|\
G|----9--9--9--6----------------------------------------| X 1
D|----7--7--7--7--7/9-----------------------------------|/
A|----9--7--5--5--5/7-----------------------------------|
E|----9--0--5--5--5/7-----------------------------------|

Chitara 2:
E|---------------5*-------------------------------------|
B|---12*-----5*-----------------------------------------|\
G|------------------------------------------------------| x 1
D|-------7*---------------------------------------------|/
A|------------------------------------------------------|
E|------------------------------------------------------|

VERS:

Chitara 1:
E|------------------------------------------------------|
B|------------------------------------------------------|\
G|----9--9--9--6----------------------------------------| X 2
D|----7--7--7--7--7/9-----------------------------------|/
A|----9--7--5--5--5/7-----------------------------------|
E|----9--0--5--5--5/7-----------------------------------|

Chitara 2:
E|------------------------------------------------------|
B|---10~---9~---7~---5~---------------------------------|\
G|------------------------------------------------------| x 2
D|------------------------------------------------------|/
A|------------------------------------------------------|
E|------------------------------------------------------|

INTRO:

Chitara 1:
E|------------------------------------------------------|
B|------------------------------------------------------|\
G|----9--9--9--6----------------------------------------| X 2
D|----7--7--7--7--7/9-----------------------------------|/
A|----9--7--5--5--5/7-----------------------------------|
E|----9--0--5--5--5/7-----------------------------------|

Chitara 2:
E|---------------5*-------------------------------------|
B|---12*-----5*-----------------------------------------|\
G|------------------------------------------------------| x 2
D|-------7*---------------------------------------------|/
A|------------------------------------------------------|
E|------------------------------------------------------|

VERS:

Chitara 1:
E|------------------------------------------------------|
B|------------------------------------------------------|\
G|----9--9--9--6----------------------------------------| X 2
D|----7--7--7--7--7/9-----------------------------------|/
A|----9--7--5--5--5/7-----------------------------------|
E|----9--0--5--5--5/7-----------------------------------|

Chitara 2:
E|------------------------------------------------------|
B|---10~---9~---7~---5~---------------------------------|\
G|------------------------------------------------------| x 1
D|------------------------------------------------------|/
A|------------------------------------------------------|
E|------------------------------------------------------|

E|----12~---10~---9~---7~-------------------------------|
B|------------------------------------------------------|\
G|------------------------------------------------------| x 1
D|------------------------------------------------------|/
A|------------------------------------------------------|
E|------------------------------------------------------|

INTRO:

Chitara 1:
E|------------------------------------------------------|
B|------------------------------------------------------|\
G|----9--9--9--6----------------------------------------| X 2
D|----7--7--7--7--7/9-----------------------------------|/
A|----9--7--5--5--5/7-----------------------------------|
E|----9--0--5--5--5/7-----------------------------------|

Chitara 2:
E|---------------5*-------------------------------------|
B|---12*-----5*-----------------------------------------|\
G|------------------------------------------------------| x 2
D|-------7*---------------------------------------------|/
A|------------------------------------------------------|
E|------------------------------------------------------|

REFREN:

Chitara 1:
E|------------------------------------------------------|
B|----10---9------10--9---------------------------------|\
G|----------------9---9---------------------------------| x 2
D|----7----7------7---7---------------------------------|/
A|----9----9------7---7---------------------------------|
E|------------------------------------------------------|

Chitara 2:
E|------------------------------------------------------|
B|------------------------------------------------------|\
G|------------------------------------------------------| x 2
D|------------------------------------------------------|/
A|------9-------9/11/12/14------------------------------|
E|------9-------0-0--0--0-------------------------------|

INTRO:

Chitara 1:
E|------------------------------------------------------|
B|------------------------------------------------------|\
G|----9--9--9--6----------------------------------------| X 2
D|----7--7--7--7--7/9-----------------------------------|/
A|----9--7--5--5--5/7-----------------------------------|
E|----9--0--5--5--5/7-----------------------------------|

Chitara 2:
E|---------------5*-------------------------------------|
B|---12*-----5*-----------------------------------------|\
G|------------------------------------------------------| x 2
D|-------7*---------------------------------------------|/
A|------------------------------------------------------|
E|------------------------------------------------------|

REFREN:

Chitara 1:
E|------------------------------------------------------|
B|------------------------------------------------------|\
G|-----------7------------------------------------------| x 1
D|---4-2-----7-----7----6-------------------------------|/
A|---4-2-----5-----7----7-------------------------------|
E|---2-0-----------5----4-------------------------------|

Chitara 2:
E|------------------------------------------------------|
B|------10-9--7h9---------------------------------------|\
G|------9--9--9-9---------------------------------------| x 4
D|------7--7--7-7---------------------------------------|/
A|------------------------------------------------------|
E|------------------------------------------------------|

Chitara 1:
E|------------------------------------------------------|
B|------------------------------------------------------|\
G|-----------7------------------------------------------| x 1
D|---4-2-----7-----7----6-------------------------------|/
A|---4-2-----5-----7----7-------------------------------|
E|---2-0-----------5----4---4b5b4-----------------------|

Chitara 2:
E|------------------------------------------------------|
B|------10-9--7h9---------------------------------------|\
G|------9--9--9-9---------------------------------------| x 4
D|------7--7--7-7---------------------------------------|/
A|------------------------------------------------------|
E|------------------------------------------------------|

Chitara 1:
E|------------------------------------------------------|
B|------------------------------------------------------|\
G|-----------7------------------------------------------| x 3
D|---4-2-----7-----7----6-------------------------------|/
A|---4-2-----5-----7----7-------------------------------|
E|---2-0-----------5----4-------------------------------|

Chitara 2:
E|------------------------------------------------------|
B|------10-9--7h9---------------------------------------|\
G|------9--9--9-9---------------------------------------| x 12
D|------7--7--7-7---------------------------------------|/
A|------------------------------------------------------|
E|------------------------------------------------------|

OUTRO: 

Chitara 1:
E|------------------------------------------------------|
B|------------------------------------------------------|\
G|-----------7------------------------------------------| x1
D|---4-2-----7-----7----6-------4~----------------------|/
A|---4-2-----5-----7----7-------4~----------------------|
E|---2-0-----------5----4-------2~----------------------|
                      |...|

Chitara 2:
E|------------------------------------------------------|
B|------10-9--7h9---------------------------------------|\
G|------9--9--9-9---------------------------------------| x 3
D|------7--7--7-7---------------------------------------|/
A|------------------------------------------------------|
E|------------------------------------------------------|

Chitara 2:
E|------------------------------------------------------|
B|----10-----9-----7-----9-----9--------10~-------------|\
G|-------9-----9-----9-----9-----9---9--9~--------------| x 1
D|---------7-----7-----7-----7-----7----7~--------------|/
A|------------------------------------------------------|
E|------------------------------------------------------|


|....| = palm mute
~ = let it sound
b = bend 
h = hammer on
/ = slide up
* = harmonics

Rock  

Pentru a putea vota sau adăuda comentarii, e nevoie să te autentifici sau înregistrezi .