Victoras – Black rain

(2 voturi)

Contribuție:  GuzganuRozaliu


NUmai Power Cords

E |----------------|----------------|----------------|----------------|
B |----------------|----------------|----------------|----------------|
G |----------------|----------------|----------------|----------------|
D |----------------|----------------|----------------|----------------|
A |----------------|----------------|----------------|----------------|
E |--5--5--5--5----|--7--7--7--7----|--8--8--8--8----|--7--7--7--7----|


----------------|----------------|----------------|---------------|||
----------------|----------------|----------------|---------------|||
----------------|----------------|----------------|--------------o|||
----------------|----------------|----------------|--------------o|||
----------------|----------------|----------------|---------------|||
--2--2--2--2----|--9--9--9--9----|--8--8--8--8----|--7--7--7--7---|||


---------------|----------------|----------------|----------------|----------|
---------------|----------------|----------------|----------------|----------|
o--------------|----------------|----------------|----------------|----------|
o--------------|--7--7--7--7----|--9--9--9--9----|--5--5--5--5----|----------|
-7--7--7--7----|--5--5--5--5----|--7--7--7--7----|--3--3--3--3----|--5-------|
-5--5--5--5----|----------------|----------------|----------------|--3-------|


----------------|----------------|----------------|----------------|---------||
----------------|----------------|----------------|----------------|---------||
----------------|----------------|----------------|----------------|--------o||
----------------|--7--7--7--7----|--9--9--9--9----|--5--5--5--5----|--------o||
--7--7--7--7----|--5--5--5--5----|--7--7--7--7----|--3--3--3--3----|--5------||
--5--5--5--5----|----------------|----------------|----------------|--3------||


----------||
----------||
----------||
----------||
----------||
----------||
Pentru o exemplificare mai buna utilizati fisierul guitar pro

Ultima actualizare:  07.07.2012

Comentarii

Pentru a putea vota sau adăuda comentarii, e nevoie să te autentifici sau înregistrezi .