Chester – Asta ramane in istorie

(3 voturi)

Contribuție:  unugeorge


Am incercat sa imbunatatesc varianta lui booky.

Acordurile pe strofa:


    C#m7 Bsus4    C#m   Bsus4    
e|---0------0------4------0---|
B|---0------0------5------0---|
G|---4------4------6------4---|
D|---2------4------6------4---|
A|---4------2------4------2---|
E|---x------x------x------x---|

Refren:


     E     C#m     A     Bm
e|---0------4------5------7---|
B|---0------5------5------7---|
G|---1------6------6------7---|
D|---2------6------7------9---|
A|---2------4------7------9---|
E|---0------4------5------7---|

Cam asta e :D Have fun!

Rock  

Pentru a putea vota sau adăuda comentarii, e nevoie să te autentifici sau înregistrezi .