Cheloo – Periculos (feat. Fritz)

Contribuție:  metaledu


Chitară solo
e|--------------------------------|--------------------------------|
B|--------------------------------|--------------------------------|
G|------------5--6--7-6-5---------|------------5-5-6--8-6-8/10~~---|
D|--8--8-6-8--------------8-4-8---|-8--8-6-8-8---------------------|
A|--------------------------------|--------------------------------|
E|--------------------------------|--------------------------------|

Chitară ritm.
e|--------------------------------|--------------------------------|
B|--------------------------------|--------------------------------|
G|--------------------------------|--------------------------------|
D|--------------------------------|--------------------------------|
A|-8---8--------------------------|-6--6---------------------------|
E|-6---6--------------------------|-8--8---------------------------|

-La strofă se bat cei doi accenți pe La# și imediat după, alți 4 timpi rapizi pe același 
acord,dar palm mute - ascultați melodia ca să înțelegeți la ce mă refer. La primele 4 
strofe sunt 2 timpi normali pe La#, așa cum am făcut în tab, și apoi cei 4 pe palm mute, 
la următoarele 4 versuri sunt DOAR cei doi timpi din tab, apoi se reia șmecheria și tot 
așa. Ideea e că se menține pe La# pe strofe, iar la refren sunt 3 acorduri pe care vă 
jucați după cum auziți în piesă: La#, Fa#, Re#. Se repetă de 3 ori, iar a 4-a oară e o 
chestie crescătoare pe niște acorduri care încep cu Re#, mă întrebați voi dacă aveți 
nelămuriri.- *folosiți cvinte!

Visati revolutii blestemand in pahar
Cu pistolu` descarcat incuiat in sertar
Romania, penitenciar in aer liber
In umbra Caraimanului asteptam un nou lider
Liber nu sunt, fericit nu sunt, n`am cum
Raman un huligan, refractat si nebun
Democratie e o forma de comunism gretos
Iar balanta justitiei, un cantar mincinos
Parlamentu e o farsa, il gasesti dupa miros
Hotii la cravata sapa prin usa din dos
Guvernul e o hiena, paznic la morga Revolutiei
Amana sistematic gasirea solutiei
Puterea ne prosteste cu limbaj de lemn
Atrage politisti saraci, mercenari pentru sistem
Nu ma tem sa infrunt viitorul incert
Eu vad, eu nu uit, eu nu iert ...

R:(x2)

Pericol, sunt un pericol, sunt un pericol
Nu ma poti cumpara, sunt un pericol pentru linistea ta ...

Amara`i painea mancata aici cu noduri
Castiga alegerile cine cumpara mai multe voturi
Presa scrie liber despre violuri si crime
Si saruta`n bot partidu care cotizeaza mai bine
Jandarmi platiti de noi ne bat in cap la meciuri
Cum bateau securistii partizanii in beciuri
La 4 ani votati in sila, in spume, in gluma 
Imbratisand increzator acelasi tip ce ciuma
Casa Poporului e un stup de trantori obezi
Biserica e un loc in care te rogi, platesti si nu crezi
Cum ar fi daca te`as trezi cand visezi frumos
Si ai incepe brusc sa vezi, ai fi si tu periculos? 
Ura mea arde cand prostia sufoca vointa
Sa`ti fie betonu in jur, respecta`mi dorinta
Nu ma tem sa infrunt viitorul incet
Eu vad, eu nu uit, eu nu iert ...

R:(x4)

Pericol, sunt un pericol, sunt un pericol
Nu ma poti cumpara, sunt un pericol pentru linïstea ta ...

Hip-hop  Rock  Social  

Pentru a putea vota sau adăuda comentarii, e nevoie să te autentifici sau înregistrezi .