Millenium – Fata sihastra

Contribuție:  Digital


Dupa ce am constatat ca pe internet nu exista nicio tabulatura corecta a acestui cantec, 
am decis s-o fac eu pe cea corecta.
Puteti gasi si filmuletul instructional cautand pe YouTube: "Cum se canta Millenium-Fata 
sihastra la chitara".
Acesta este primul meu tab, dar va asigur ca suna exact ca originalul.

 


     C
E||--------------------------------------|
B||--1--------0h--1p--0h--1p--0h--1p--0--|
G||--0--------0--------------------------|
D||--2--------2--------------------------|
A||--3--------3--------------------------|
E||--------------------------------------|


          Fadd9     F7Maj.                                   
  
----------3----3-------0----------3p--0-----------|
----------1----1-------1----1---------------------|
----------2----2-------2-------2------------------|
----------3----3-------3--------------------------|
-----------------------------------------3p--0----|
--------------------------------------------------|

  C
--------------------------------------|
--1--------0h--1p--0h--1p--0h--1p--0--|
--0--------0--------------------------|
--2--------2--------------------------|
--3--------3--------------------------|
--------------------------------------|


           Fadd9        F7Maj.                                                            
     
----------3----3-------0-----------------------------||
----------1----1-------1-----------------------------||
----------2----2-------2-----------------------------||
----------3----3-------3-----------------------------||
-----------------------------------------------------||
-----------------------------------------------------||


aici este doar varianta corecta a intro-ului. Pentru a canta toata melodia cauati pe acest site celalalt tab al melodiei







Tablature Legend
----------------

h - hammer on
p - pull off

Ultima actualizare:  08.12.2012

Pentru a putea vota sau adăuda comentarii, e nevoie să te autentifici sau înregistrezi .