Trooper – Viata e doar un vis

Contribuție:  SpiriFlaviu


Acordaj Eb:



Intro:
E:-------------------------|-------------------------------------|
B:-------------------------|-------------------------------------|
G:--9--7--6----------------|--9--7--6----------------------------|
D:-----------9-----7--6----|-----------9-----7--6----------------|
A:-----------------------9-|-----------------------9-----7--5----|
E:-------------------------|-------------------------------------|


E:-------------------------|-------------------------------------|
B:-------------------------|-------------------------------------|
G:--9--7--6----------------|--7--6-------------------------------|
D:-----------9-----7--6----|---------9--7----6--7--7-------------|
A:-----------------------9-|-------------------------------------|
E:-------------------------|-------------------------------------|




                             
Peste ani, am zburat, spre alta lume
                 
vise am dus, inspre apus
                              
N-am privit, nicio clipa, lumea in care
                 
M-am ratacit si am gresit



     
Cate zile-au ars, 
                      
Printre valuri ce-au  trait,
	                
Cate nopti si amintiri




Refern:

                        
	Timpul de azi s-a oprit
	        
	Lacrimi in stele
 	             
	Pe cer s-au aprins 
	              
	Viata e doar un vis



      A         F#m              C#m
Am trecut peste tot ce-a fost odata
D        E       D       E
Rana in piept, negru-n desert
       A        F#m               C#m
N-am crezut ca privind spre dimineata
D        E   D        E
Ma voi uita la steaua mea


Bm      E
Cate nopti am ars
        A       E    Bm
Printre umbre ce-au trait
         D       E
Doamne, si cat v-am iubit



Refren:

        A         E       D
	Timpul de azi s-a oprit
	F#m        D
	Lacrimi in stele
 	   A          E
	Pe cer s-au aprins 
	F      G        A
	Viata e doar un vis

	F      G        A
	Viata e dor un vis
	

	Solo


Bm     E
Cate zile-au ars, 
         A     E        Bm
Printre valuri ce-au  trait,
	D          E      
Cate nopti si amintiri


        A         E       D
	Timpul de azi s-a oprit
        A         E       D
	Timpul de azi s-a oprit
        A         E       D
	Timpul de azi s-a oprit
	F      G        A
	Viata e dor un vis
	

	A         E       D
	Timpul de azi s-a oprit
	F#m        D
	Lacrimi in stele
 	   A          E
	Pe cer s-au aprins 
	F      G        A
	Viata e doar un vis

	F      G        A
	Viata e dor un vis

Rock  

Pentru a putea vota sau adăuda comentarii, e nevoie să te autentifici sau înregistrezi .

Acorduri