Connect-R – Vedeta mea

(2 voturi)

Contribuție:  Adamita_Alin


Nu sunt sigur ca acestea sunt acordurile:   
Acordurile se repeat sau Capo(III): Em F F#


Intro:

E||-----------------------------------------------------
B||-------------------------------------------12----12---se ciupesc de sus in jos
G||-----10s14--10--12-10---7-------10-10--12-----12-----           ultimele note
D||-----------------------------------------------------
A||-----------------------------------------------------


E||------------------------------------------------------
E||-----------------------------------------------------
B||-------------------------------------------12----13---se ciupesc de sus in jos
G||-----10s14--10--12-10---7-------10-10--12-----12-----        ultimele note
D||-----------------------------------------------------
A||-----------------------------------------------------
E||------------------------------------------------------
 Pe parcursul Intro-ului se tine acordul Gm

  Gm
  Ca tine nu-i nici una, 
  Gm
  Am vrut sa-ti dau si luna, 
  Gm
  Dar tu nu stai nici la soare, 
  G#             A        
  Iti place lumina de la reflectoare
  Gm 
  Eu ti-am oferit de toate
  Gm
  Da' nu m-am gandit ca poate 
G#
  Dintre toate cele visate, 
  A
 Cel mai mult vrei celebritate.
 Vroiam sa-ti fac logodna, 
 Sa te duc sus pe muntele Athos, 
 Dar la cate pacate aveai
 Sa ne cunune putea doar Kapatos
 E haos... 
 Ca stiu ca filmul are un final
 Dar i-auzi...
 Regizorul sunt eu, pierzi rolul principal! 

 Ref.:

 Ai fost vedeta mea
 Un star de cinema, 
 Si m-ai vrajit cumva, 
 Cu-acel "Je ne sais qois"
 Ai fost vedeta mea
 Un star de cineva
 Dar a venit cineva, 
 Si ti-a luat stralucirea

 Ca tine nu vezi tot timpul, 
 Am vrut sa-ti pictez si chipul
 Da' tu vrei s-apari in imagini, 
 Si-alea sa fie pe primele pagini.
 Eu ti-am oferit o casa, 
 O viata fara riscuri, 
 Dar nu m-am gandit ca defapt, 
 Tu vrei o viata-n casa de discuri

 Si erai steaua mea
 Si langa tine eram teafar
 Erai atat de stea 
 Incat te puteam chema Luceafar
 Si am sa spun cuiva
 Sa-ti dea cumva de stire
 Ca stele cand sunt prea sus
 Isi pierd din stralucire

 Ref. x2:

 Ai fost vedeta mea
 Un star de cinema, 
 Si m-ai vrajit cumva, 
 Cu-acel "Je ne se qois"
 Ai fost vedeta mea
 Un star de cineva
 Dar a venit cineva, 
 Si ti-a luat stralucïrea

Pop  

Comentarii

Pentru a putea vota sau adăuda comentarii, e nevoie să te autentifici sau înregistrezi .

Acorduri