Guess Who – Liber

Contribuție:  Serjioo


Intro B


E|-----------2-----------------2-----------------2--------2--------2--------|--
B|--------3-----3-----------3-----3-----------3-----3--------3--------3-----|--
G|-----4-----------4-----4-----------4-----4-----------4--------4--------4--|--
D|--------------------------------------------------------------------------|--(x2)
A|--------------------0-----------------2-----------------------------------|--
E|--3-----------------------------------------------------------------------|--

    G                  G        A          B           B         A           G

E|----------14------------------14------------------14----------14----------14----------|--
B|------15------15----------15------15----------15------15----------15----------15------|--
G|--16--------------16--16--------------16--16--------------16----------16----------16--|--
D|--------------------------------------------------------------------------------------|--
A|--------------------------------------------------------------------------------------|--
E|--------------------------------------------------------------------------------------|--



Zi-mi ce crezi tu
 Hai zi-mi cum vezi tu
 Lasă-i pe restul să creadă că e târziu
 Nu există nu pot, nu vreau, nu ştiu.

Eşti lìber, lìber.

                    
Eşti liber să ai opinii
                
 Liber să ignori ce zic toţi cretinii
 Liber să te zbaţi
 Să fii printre primii
 Liber să ai minte iute
 Mai rău că un Lamborghini
 Eşti lìber să laşi de-o parte
 Tot ce nu-ţi convine şi să treci mai departe
 Să vrei tot ce ţi se cuvine din păcate
 Să nu fii nevoit să cumperi libertate
 Eşti lìber să faci tot de capul tău
 Aşa cum crezi tu că e bine sau rău
 Să fi atât de curios cum vrei tu
 Să vezi cu ochii tăi cam care e secretul
 Şi dac-o să te întrebe cineva
 Despre anii care-au trecut în viaţa ta
 Tu spune-le că nu nu
 Nu ai alergat în post
 Că nu există nu pot, nu vreau, nu ştiu.

Eşti lìber, lìber.

Eşti lìber să ai dreptate
 Chiar dacă în general în ţara asta nu se poate
 Liber să le dai dreptate
 Să crezi în restul, că altfel nu se poate
 Eşti lìber să le faci pe toate
 Liber să te angajezi şi să munceşti zi şi noapte
 Liber să nu mai dormi ca să ajungi la facultate
 Liber să înţelegi că asta nu e libertate
 Zi-mi ce crezi tu
 Hai zi-mi cum vezi tu
 Lasă-ì pe restul să creadă că-ì târzìu
 Nu exìstă nu pot, nu vreau, nu ştìu
 Eşti lìber, liber.


Practic toata piesa merge pe G G A B B A G. Ascultati linia de chitara bass.

Hip-hop  Social  

Pentru a putea vota sau adăuda comentarii, e nevoie să te autentifici sau înregistrezi .

Acorduri