Trooper – Zi dupa zi

(2 voturi)

Contribuție:  SpiriFlaviu


Acordaj: Eb


Vers:

                    
     Ma vezi asa cum sunt
                                
     Cad in genunchi, dar inca mai cant
                       
     Nici nu mai stiu de ieri
                              
     Ajung peste tot, ma-ntorc nicaieri



    
     Am          F          C
     Simt cum ma pierd, usor
          Am         F    C         G
     Nu-i nimeni de care sa-mi fie dor
     Am     F       C
     Inca o zi, la fel 
            Dm             Am       G
     Am sa schimb doar camera de hotel


Pre-chorus:
        Dm               F
	Oare cine stie cat mi-e de greu
        Dm                G
        Fug de mine si de tot ce-i al meu


Chorus:

          C          F          G
          Trec anii, trec peste noi
          F                  G
          Timpul nu vine 'napoi
          C           F          G
          Trec anii, trec peste noi
                            F        G
          Si simt ca-ntr-o zi ce a fost

          Ce a fost nu va mai fi


Mini-solo: 


     Am         F      C
     Nu stiu ce zi e azi
     Am          F    C      G
     Nu stiu sa spun in ce oras
     Am        F        C
     Nici unde plec de-aici
               Dm     Am          G
     Inchid ochii si incerc sa ma mint




Pre-chorus:
        Dm               F
	Oare cine stie cat mi-e de greu
        Dm                G
        Fug de mine si de tot ce-i al meu


Chorus:

          C          F          G
          Trec anii, trec peste noi
          F                  G
          Timpul nu vine 'napoi
          C           F          G
          Trec anii, trec peste noi
                            F        G
          Si simt ca-ntr-o zi ce a fost
	                      F
          Ce a fost nu va mai fi


Bridge:

		      Dm
		Lumea e un joc
		Am
		Mult prea greu
		G             E 
		Cand ai un loc
		         Am     G        F        Fm
		Voi fi o umbra din ce-a fost


Solo: C G Am F x2



Pre-chorus:
        Dm               F
	Oare cine stie cat mi-e de greu
        Dm                G
        Fug de mine si de tot ce-i al meu

Chorus (cu 2 semitonuri mai sus):  x 2
	
	  D          G          A
          Trec anii, trec peste noi
          G                  A
          Timpul nu vine 'napoi
          D           G          A
          Trec anii, trec peste noi
                           G        A
          Si simt ca-ntr-o zi ce a fost
	                      D
          Ce a fost nu va mai fi





Mini-solo:


Eb:-------------------------------------|--pb20r19---17-------------------|
Bb:--13--12-----------------------------|----------------20----18--17-----|
Gb:----------14---12----10----9~~~~-----|---------------------------------|
Db:-------------------------------------|---------------------------------|
Ab:-------------------------------------|---------------------------------|
Eb:-------------------------------------|---------------------------------|




Eb:------------------------------------------------|
Bb:---17b18r17-------------------------------------|
Gb:-------------19--17---16b1716-------------------|
Db:---------------------------------17--17/19------|
Ab:------------------------------------------------|
Eb:------------------------------------------------|


b - bend
pb - prebend
r - release bend
/ - slide

Rock  

Ultima actualizare:  29.09.2013

Pentru a putea vota sau adăuda comentarii, e nevoie să te autentifici sau înregistrezi .

Acorduri