Țapinarii – Esti frumoasa dar te strica fata

(10 voturi)

Contribuție:  anonim198


Intro (nu este f exact. astept pareri)

                         
e-----2--------3----------0-----2--------||
B-----3-----3-------------------3--------||
G-----2----------------3--------2--------||
D---0---------------------------0--------||
A------------------0---------------------||
E----------------------------------------||


e---2--2-------5----7--7-----1---2--2----
B---3--3-------6----8--8-----2---3--3----
G---2--2-------5----7--7-----1---2--2----
D---0--0-------0----0--0-----0---0--0----
A----------------------------------------
E----------------------------------------


e---2--2-------5----7--7-----1---2--2----
B---3--3-------6----8--8-----2---3--3----
G---2--2-------5----7--7-----1---2--2----
D---0--0-------0----0--0-----0---0--0----
A----------------------------------------
E----------------------------------------

    

(refren)
             
Esti frumoasa, dar te strica fata
              
Te strica ochii, nasul si mustata
                     
Esti nasparliiiiiiiie rau... rau rau

                
Am intalnit odata pe strada o fata
                   
Era-ntuneric... intuneric
                     
Avea si craci si tate si c*r
                              
Si as vrea si eu o bucata din ele

Asta seara

(dai aiurea pe corzi)

Fata se intoarce cu fata.

(refren)

   
... declaratie ... de dragoste,

Fac acum pentru tine,

Chiar daca m-ai surprins cu pantalonii-n vine,
                   
Si cu mana dreapta usor tremuranda,
                   
Te caut, te gasesc, te surpind,
            
Pentru c-am stat la panda
                     
In final te cuceresc cu firea mea poetica
                
La noapte .. rezolvam .. probleme de etica

  
 ...dar te strica fata
              
Te strica ochii, nasul si mustata
                     
Esti nasparliiiiiiiie rau... rau rau

                                             
Am plecat aseara de-acasa cu cruciulita, apa sfintita
   
Si busuioc,
                           
Am luat si o apa, o apa spirtoasa, usturoi
                        
Si un presedinte, de bloc


(refren x2) mai lent :)
end.

Folk  

Comentarii

Pentru a putea vota sau adăuda comentarii, e nevoie să te autentifici sau înregistrezi .

Acorduri