Ștefan Hrușcă – Frunze

Contribuție:  rasgeado


Versuri: Radu Stanca
Album: Rugă pentru părinți (1995)

Fluierat (intro, interludiu, postludiu):

                                                         
E |----------------|----------|----------------------------|----------------|
B |----------------|----------|-----------------------1----|----------------|
G |--------0--2----|----------|-----2--3--2--3--2--3-------|--3--2----------|
D |-----3----------|--2-------|----------------------------|----------------|
A |----------------|----------|----------------------------|----------------|
E |----------------|----------|----------------------------|----------------|

                                                        
----------------|----------|----------------------------|---------|||
----------------|----------|----------------------------|---------|||
--------0--2----|----------|-----------0--------0-------|--------o|||
-----3----------|--2-------|-----2--3-----3--2-----2----|--3-----o|||
----------------|----------|----------------------------|---------|||
----------------|----------|----------------------------|---------|||

Dm
Nu mă-ntreba nimic în noaptea asta
                                    A
Nici cât e ceasul, nici ce gânduri am
     A7  
Mai bine lasă-mă să-nchid fereastra
   Bb                           A
Să nu văd frunzele cum cad din ram

    Dm 
Fă focul și preumblă-te prin casă
                               A
Fără să spui nimic, niciun cuvânt
       A7
Vreau să mă simt la tine ca acasă
    Bb                           A
Să nu văd frunzele cum zboară-n vânt,
       A7     Dm     D
Cum zboară-n vânt

                         
Iubito, în noaptea asta împărătească
                         
Numai tăcerea las-o să vorbească (2x)

//Interludiu

Învăluită-n straie de culcare
Așează-mi-te-alăturea c-un ghem
Și deapănă mereu, fără-ncetare
Să n-aud frunzele sub pași cum gem

Ferește-mă în preajma ta de vasta
Urgie-a toamnei care bântuie
Și nu mă întreba în noaptea asta
De ce mă înspăimântă frunzele,
Frunzele

Iubito, în noaptea asta împărătească
Numai tăcerea las-o să vorbească (2x)

//Postludiu

Folk  

Pentru a putea vota sau adăuda comentarii, e nevoie să te autentifici sau înregistrezi .

Acorduri