Ăia - Cimitir de amintiri

  • (25 voturi)
  • Contribuție:  anonime
  • Ultima actualizare: 07.04.2014
CLAPA TRANSFORMATA IN CHITARA NAHH
--------15-14--------15-14----------15-14-------15-14------15-14-----15-15-14----
--12------------12----------12-12----------12------------12----------12----------
---------------------------------------------------------------------------------
--------------------------inceputul:)--------------------------------------------
---------------------------------------------------------------------------------
---------------------------------------------------------------------------------

SI A 2 CHITARA 
-------------------------------------------------------------------------------
-------------------------------------------------------------------------------
-------------------------------------------------------------------------------
---5----5---5---7---7----7-----9-----------9-------9-------9----------9-----9--
3----3----3---5---5---5----7---------7----------7-----7---------7---------7----
-------------------------------------------------------------------------------

RIFF REFREN:) CIIIIIMITIIIIIR DE AMINTIIIIIRI  

---------------------------------------------------------------------------------
---------------------------------------------------------------------------------
---------------------------------------------------------------------------------
------2---4---5--------4----5----7---------5---7---9--------5---7---9--------- x2
-3-3---3---3---3-5-5----5----5----5-7-7----7---7---7-7-7---7---7---7-------------
---------------------------------------------------------------------------------

TERTZA X2 | PALM MUTE(PALMATE:) 
--------------------------------------------------------------------------------- 
---------------------------------------------------------------------------------
-----5----7----9---------7----9----11--------9---11----12--------9----11---12----
5-5----5----5----5-7-7----7----7-----7-9-9---9-----9-----9-9-9----9-----9--------
---------------------------------------------------------------------------------
---------------------------------------------------------------------------------

ASHAAA
APOI
PARTEA DE VERS...IEI ACORDURILE ASTEA...CIUPITE LOVITE CUM ITZI VINE TZIE MAI USHOR
---0--------------------0-------------- 0----------------------------------------
---1--------------------3---------------0----------------------------------------
---O----------------- --0---------------0----------------------------------------
---2--------------------4---------------2----------------------------------------
---3--------------------5---------------2----------------------------------------
-----------------------------------------0---------------------------------------

LA SFARSHITUL STROFEI DAI PE DISTORS(IN ULTIMELE VERSUR) PALMATE SI ASTEA 
-----------------------------------------------------------------------------
-----------------------------------------------------------------------------
-----------------------------------------------------------------------------
-9--X8-----7--X8----9--X14--- 7-X2----5--X8------7---X8-------2~~~~~~~~------- 
-7----------5---------7----------5--------3-----------5-------------2~~~~~~~~-
----------------------------------------------------------------------0-~~~~~~

FOCUL S-A STINS..TOTUL S-A STINS....DOR M-A CUPRINS
-----------------------------------------------------------|---------------
-----------------------------------------------------------|---------------
-----------------------------------------------------------|---------------
---5--X8----7--X8----9--X8----(10-8-10-8-10-8-10-8)-----X2-|--2----- 
                                    
  • admin
    7 aprilie 2014 20:36
    Cam asa trebuia sa arate
  • TRipleX
    6 aprilie 2014 18:46
    nu pot intelege mai nimic din toata tabulatura. Te rog frumos aranjeaz-o in pagina si posteaz-o din nou. merci:*
6Ld5REUUAAAAAA1PBEDya2BDGnf5rYKeKnmYm4Cz
efb59a4f41746d02f67caf0a34ad4956