Animal X - Doar tu si eu

  • (3 voturi)
  • Contribuție:  Marius_L
  • Ultima actualizare: 15.03.2012
SOlo la chitara :

E||-----------------------------------------------------
B||--------------------------/15-15-15-15-14-12-10------
G||-----------6-7-9--/11-9------------------------------
D||-----5-7-9-------------------------------------------
A||---8-------------------------------------------------
E||-----------------------------------------------------

E||-----------------------------------------------------
B||-----------------------------------------------------
G||-11h12p11--9-11-7-9-11-12-11h12p11--9----------------
D||--------------------------------------11s12s11-7-5-4-
A||-----------------------------------------------------
E||-----------------------------------------------------

E||-----------------------------------------------------
B||--------------------------/15-15-15-15-14-12-10------
G||-----------6-7-9--/11-9------------------------------
D||-----5-7-9-------------------------------------------
A||---8-------------------------------------------------
E||-----------------------------------------------------

E||-----------------------------------------------------
B||-----------------------------------------------------
G||-11h12p11--9-11-7-9-11-12-11h12p11-9-7---------------
D||----------------------------------------11h12p11-7-4-
A||-----------------------------------------------------
E||-----------------------------------------------------

h-hammer on
p-pull off
s-slide

Bm                     A
Esti ca un inger ce isi cauta o stea
Em                      Bm
Si hoinaresti mereu pe cer
Ai ochii-n lacrimi si-n palme viata mea
Sa te intorci la mine sper

Bm                     A
Spune-mi ce ochi strain stie ce doar noi stim
Em             Bm
Ooo, doar tu si eu
Spune-mi, tu crezi in noi, jura-mi ca vom fi doi
Ooo, doar tu si eu

Esti prea departe desi dormi pe mana mea
Azi am ajuns ca doi straini
La prima raza o sa pleci din lumea mea
Iar eu in urma ta ma sting

Sapte semne-ntr-o carte, sapte zile de catifea
Tot atatea nopti de dragoste cu aroma de cafea
Toate parca-s departe cand privesti in oglinda ta

EU folosesc doar barre in piesa data!
  • maverick
    18 noiembrie 2014 11:09
    La solo ai gresit prietene .. e foarte simplu dupa auz sa il scoti , voi face un cover la solo , in rst acorduriile sunt bune ! 4 stele !
  • Marius_L
    27 aprilie 2012 15:39
    posibil, e primul meu solo ales ))
  • Marius_L
    15 aprilie 2012 21:54
    sorry, nu stius a ma folosesc de guitarpro ) daca ceva skype-ul meu e I-am-back1, pot sa lamuresc ce nu e clar )
  • masterpas
    11 aprilie 2012 03:11
    poti sa o faci in GuitarPro?...sau sa faci un video?
  • Marius_L
    3 aprilie 2012 14:52
    pai asculta cintecu, ca se aude totuL )
bbbd6183b989a8b238af1fb4cf52285c
6Ld5REUUAAAAAA1PBEDya2BDGnf5rYKeKnmYm4Cz