Bitza - (cu Grasu XXL) Pofta de viata

  • Contribuție:  c4bl3_6uy
  • Ultima actualizare: 12.05.2012
E||------------------------*--------0-----------|--------0----------0----|
B||------1-0--1-----1-0--1-*------3-------------|------1----1-----1----1-|
G||----2----------2--------*----4---------------|----2----------2--------|
D||------------------------*--5-----------------|--3----------3----------|
A||--0----------0----------*--------------------|------------------------|
E||------------------------*--------------------|------------------------|

--------1---0--------||
------1---1----------||
----2----------------||
--3------------------||
---------------------||
---------------------||

cred că aşa o ţine toată melodia. am pus şi versiunea în guitar pro.
P.S. prima parte (până la *) puteți să o faceți și așa:

E||------------------------|
B||--------0----------0----|
G||------5----5-----5----5-|
D||----7----------7--------|
A||--0----------0----------|
E||------------------------|
  • c4bl3_6uy
    21 iulie 2010 16:03
    sau asa...:)
  • pavel142
    20 iulie 2010 03:22
    in loc de 0 pe Si tineti 4 pe Sol... e mai comod si asa se leaga tot, e greu sa te ti la tempoul ala asa
6Ld5REUUAAAAAA1PBEDya2BDGnf5rYKeKnmYm4Cz
612211d8dd2279e8b98ed4455a7152c2