Cântece patriotice - Oda bucuriei tab

  • (3 voturi)
  • Contribuție:  anonimu
  • Ultima actualizare: 22.10.2011
E|---0-0-1-3-3-1-0---------0-0------------------|
B|-----------------3-1-1-3-----3-3--------------|
G|----------------------------------------------|
D|----------------------------------------------|
A|----------------------------------------------|
E|----------------------------------------------|


E|---0-0-1-3-3-1-0---------0--------------------|
B|-----------------3-1-1-3---3-1-1--------------|
G|----------------------------------------------|
D|----------------------------------------------|
A|----------------------------------------------|
E|----------------------------------------------|

E|-------0------0-1-0-------0-1-0--------3------|
B|---3-3---1--3-------1--3---------3-1-3-1------|
G|----------------------------------------------|
D|----------------------------------------------|
A|----------------------------------------------|
E|----------------------------------------------|

E|---0-0-1-3-3-1-0---------0--------------------|
B|-----------------3-1-1-3---3-1-1-VVVVVVV------|
G|----------------------------------------------|
D|----------------------------------------------|
A|----------------------------------------------|
E|----------------------------------------------|VVVV = VIBRATION
  • Burdea Gino
    15 mai 2015 16:12
    si cum fac acea VIBRATION ?
  • hoitan serban
    7 iunie 2012 19:37
    eu nu stiu ce sa zic despre cantecele patriotice
    dar nu am o parere foarte buna.:(
  • SpuFf
    1 octombrie 2011 20:05
    suna bine:). o mica obiectie:)). la al treilea rand .. sau a 3-a parte cred ca e

    E|-------0------0-1-0-------0-1-0----------3----|
    B|---3-3---1--3-------1--3---------3-1-3-1------|
1d80ab9a8f2cd4a9d66f9c9a29bee68f