Cargo - Ziua vrajitoarelor (intro)

  • (2 voturi)
  • Contribuție:  RaduDi
E||-----------------------|-----------------------|
B||-----------------------|-----------------------|
G||-----------------------|-----------------------|
D||-----------------------|-----------------------|      x3
A||----4-------4-----4-4--|---2-------------------|
E||--2----2--2-----2-----0|-3---3--0--------------|
  • Berci
    18 martie 2020 16:07
    Mie îmi sună mai degrabă a ceva de genul:

    E||------------------------|----------------------------|
    B||------------------------|----------------------------|
    G||------------------------|----------------------------|
    D||------------------------|----------------------------| x3
    A||----4-------4-------4-4-|--------0-------------------|
    E||--2----2--2-----2-2-----|-2-2--3---3--0--------------|
07bb7aab69f9a371c7cd6c53396cb7b4