Colinde - Ingerii-n a noastre plaiuri

Track 1
     Q    Q    Q    E.  S    Q.     E  Q    Q       Q    E.  S Q    E.  S  
E||-----------------------|----------------------|------------------------|
B||--0----0----0----0---3-|--3------1--0---------|--0----0-----0----0---3-|
G||--0----0----0----0---4-|--4---------0----0----|--0----0---2-0----0---4-|
D||--0----0----0----0---0-|--0------2-------0----|--0----0---4-0----0---0-|
A||-------2----2----------|------------2---------|------------------------|
E||--3--------------3---3-|--3------3-------3----|--3---------------3---3-|


  Q.     E  H           Q    Q    Q    E.  S    Q.     E  Q    Q     
---------------------|-----------------------|----------------------|
--3------1--0--------|--0----0----0----0---3-|--3------1--0---------|
--4------2--0--------|--0----0----0----0---4-|--4---------0----0----|
--0---------0--------|--0----0----0----0---0-|--0------2-------0----|
---------0-----------|-------2----2----------|------------2---------|
--3---------3--------|--3--------------3---3-|--3------3-------3----|


  Q    E.  S Q    E.  S    Q.     E  H           H        E  E  E  E   
------------------------|---------------------|-----------0-----------|
--0----0-----0----0---3-|--3------1--0--------|--3-----------3--1--0--|
--0----0---2-0----0---4-|--4------2--0--------|--4--------------------|
--0----0---4-0----0---0-|--0---------0--------|-----------------------|
------------------------|---------------------|-----------------------|
--3---------------3---3-|--3------0--3--------|--3--------------------|


  H        E  E  E  E     H        E  E  E  E     Q.     E  H         
-----------------------|-----------------------|---------------------|
--1--------3--1--0-----|--0--------1--0--------|---------------------|
--2-----------------2--|--0--------------2--0--|--2------2--0--------|
-----------------------|-----------------------|--4------4--0--------|
--0--------------------|-----------------------|--5------5--2--------|
-----------------------|--3--------------------|---------------------|


  Q    Q    Q    Q       H        H           H        E  E  E  E   
----------------------|--------------------|-----------0-----------|
------------0----1----|--0-----------------|--3-----------3--1--0--|
--0----2----0----2----|--0--------2--------|--4--------------------|
--0----4--------------|-----------4--------|-----------------------|
--2----0--------------|--------------------|-----------------------|
------------3---------|--------------------|--3--------------------|


  H        E  E  E  E     H        E  E  E  E     Q.     E  H         
-----------------------|-----------------------|---------------------|
--1--------3--1--0-----|--0--------1--0--------|---------------------|
--2-----------------2--|--0--------------2--0--|--2------2--0--------|
-----------------------|-----------------------|--4------4--0--------|
--0--------------------|-----------------------|--5------5--2--------|
-----------------------|--3--------------------|---------------------|


  Q    Q    Q    Q       H        H           W                          
----------------------|--------------------|-------------------|-------||
------------0----1----|--0-----------------|-------------------|-------||
--0----2----0----2----|--0--------2--------|--0----------------|-------||
--0----4--------------|-----------4--------|--0----------------|-------||
--2----0---------0----|--2--------5--------|-------------------|-------||
------------3---------|--------------------|--3----------------|-------||




Duration Legend
---------------
W - whole
H - half
Q - quarter
E - 8th
S - 16th
T - 32nd
X - 64th
. - note dotted
|-n-|  - n-tuplets


Tablature Legend
----------------
L - tied note
x - dead note
g - grace note
(n) - ghost note
> - accentuded note
NH - natural harmonic
AH - artificial harmonic
TH - tapped harmonic
SH - semi harmonic
PH - pitch harmonic
h - hammer on
p - pull off
b - bend
br - bendRelease
pb - preBend
pbr - preBendRelease
brb - bendReleaseBend
\n/ - tremolo bar dip
\n - tremolo bar dive
-/n - tremolo bar Release up
/n\ - tremolo bar inverted dip
/n - tremolo bar return
-\n - tremolo bar Release down
S - shift slide
s - legato slide
/ -  slide into from below or out of upwards
\ -  slide into from above or out of downwards
~ - vibrato
W - wide vibrato
tr - trill
TP - tremolo picking
T - tapping
S - slap
P - pop
< - fade in
^ - brush up
v - brush down
6Ld5REUUAAAAAA1PBEDya2BDGnf5rYKeKnmYm4Cz
ea07d918efffd2dda39dd8bbc720feb3