Colinde - Inima va canta rock

Guitar 1

     E  E  Q       E  E  Q       E  E  E  E     H           E  E  Q     
E||-------------|-------------|--------------|-----------|-------------|
B||-------------|-------------|--------------|-----------|-------------|
G||-------------|-------------|-----5--------|-----------|-------------|
D||--7--7--7----|--7--7--7----|--7--------5--|--7--------|--8--8--8----|
A||-------------|-------------|--------8-----|-----------|-------------|
E||-------------|-------------|--------------|-----------|-------------|


  E  E  E  E     E  E  E  E     Q     Q       E  E  Q       E  E  Q     
--------------|--------------|-------------|-------------|-------------|
--------------|--------------|-------------|-------------|-------------|
--------------|--------------|--------5----|-------------|-------------|
--8--7--7--7--|--7--5--5--7--|--5h---------|--7--7--7----|--7--7--7----|
--------------|--------------|-------------|-------------|-------------|
--------------|--------------|-------------|-------------|-------------|


  E  E  E  E     H           E  E  Q       E  E  E  E     E  E  E  E   
--------------|-----------|-------------|--------------|--------------|
--------------|-----------|-------------|--------------|--------------|
-----5--------|-----------|-------------|--------------|--------------|
--7--------5--|--7--------|--8--8--8----|--8--7--7--7--|--7--5--5--7--|
--------8-----|-----------|-------------|--------------|--------------|
--------------|-----------|-------------|--------------|--------------|


  H           E  E  E  E     Q    Q       E  E  E  E     Q    Q     
-----------|--------------|------------|--------------|------------|
-----------|--------------|------------|--------------|------------|
-----------|--------------|------------|--------------|------------|
-----------|-----7--5--3--|------------|-----7--5--3--|------------|
--8--------|--------------|------------|--------------|--5----5----|
-----------|--8-----------|--8----8----|--8-----------|------------|


  E  E  E  E     Q    Q        E   E  E  E     Q    Q       E  E  E  E   
--------------|------------|----------------|------------|--------------|
--------------|------------|----------------|------------|--------------|
--------------|------------|----------------|------------|--------------|
-----8--7--5--|------------|--10--10--8--5--|--7----7----|-----7--5--3--|
--5-----------|--7----7----|----------------|------------|--------------|
--------------|------------|----------------|------------|--8-----------|


  Q    Q       E  E  E  E     Q    Q       E  E  E  E      E   E   E   E   
------------|--------------|------------|--------------|------------------|
------------|--------------|------------|--------------|------------------|
------------|--------------|------------|--------------|------------------|
------------|-----7--5--3--|------------|-----8--7--5--|--10--10--10--10--|
------------|--------------|--5----5----|--5-----------|------------------|
--8----8----|--8-----------|------------|--------------|------------------|


   E   E  E  E     Q    Q       E  E  Q       E  E  Q       E  E  E  E   
----------------|------------|-------------|-------------|--------------|
----------------|------------|-------------|-------------|--------------|
----------------|------------|-------------|-------------|-----5--------|
--12--10--8--5--|------------|--7--7--7----|--7--7--7----|--7--------5--|
----------------|--8----8----|-------------|-------------|--------8-----|
----------------|------------|-------------|-------------|--------------|


  H           E  E  Q       E  E  E  E     E  E  E  E     Q     Q     
-----------|-------------|--------------|--------------|-------------|
-----------|-------------|--------------|--------------|-------------|
-----------|-------------|--------------|--------------|--------5----|
--7--------|--8--8--8----|--8--7--7--7--|--7--5--5--7--|--5h---------|
-----------|-------------|--------------|--------------|-------------|
-----------|-------------|--------------|--------------|-------------|


  E  E  Q       E  E  Q       E  E  E  E     H           E  E  Q     
-------------|-------------|--------------|-----------|-------------|
-------------|-------------|--------------|-----------|-------------|
-------------|-------------|-----5--------|-----------|-------------|
--7--7--7----|--7--7--7----|--7--------5--|--7--------|--8--8--8----|
-------------|-------------|--------8-----|-----------|-------------|
-------------|-------------|--------------|-----------|-------------|


  E  E  E  E     E  E  E  E     H                  
--------------|--------------|-----------|-------||
--------------|--------------|-----------|-------||
--------------|--------------|-----------|-------||
--8--7--7--7--|--7--5--5--7--|-----------|-------||
--------------|--------------|--8--------|-------||
--------------|--------------|-----------|-------||


Guitar 2
                                                  PH                      
     E  E  Q       E  E  Q       E  E  E  E       H           E  E  Q     
E||-------------|-------------|--------------|-------------|-------------|
B||-------------|-------------|--------------|-------------|-------------|
G||-------------|-------------|-----5--------|-------------|-------------|
D||--7--7--7----|--7--7--7----|--7--------5--|--<>7--------|--8--8--8----|
A||--7--7--7----|--7--7--7----|--------8-----|-------------|--8--8--8----|
E||--5--5--5----|--5--5--5----|--------------|-------------|--6--6--6----|


                                       >                                  
  E  E  E  E     E  E  E  E     Q      Q        E  E  Q       E  E  Q     
--------------|--------------|---------------|-------------|-------------|
--------------|--------------|---------------|-------------|-------------|
--------------|--------------|---------5~----|-------------|-------------|
--8--7--7--7--|--7--5--5--7--|--5h~----------|--7--7--7----|--7--7--7----|
--8--7--7--7--|--7--5--5--7--|---------------|--7--7--7----|--7--7--7----|
--6--5--5--5--|--5--3--3--5--|---------------|--5--5--5----|--5--5--5----|


  E  E  E  E     H           E  E  Q       E  E  E  E     E  E  E  E   
--------------|-----------|-------------|--------------|--------------|
--------------|-----------|-------------|--------------|--------------|
-----5--------|-----------|-------------|--------------|--------------|
--7--------5--|--7--------|--8--8--8----|--8--7--7--7--|--7--5--5--7--|
--------8-----|-----------|--8--8--8----|--8--7--7--7--|--7--5--5--7--|
--------------|-----------|--6--6--6----|--6--5--5--5--|--5--3--3--5--|


  H            E  E  E  E     Q    Q       E  E  E  E     Q    Q     
------------|--------------|------------|--------------|------------|
------------|--------------|------------|--------------|------------|
------------|--------------|------------|--------------|------------|
------------|-----7--5-----|------------|-----7--5-----|------------|
--8~--------|-----------8--|------------|-----------8--|--5----5----|
------------|--8-----------|--8----8----|--8-----------|------------|


  E  E  E  E     Q    Q        E   E  E  E     Q    Q       E  E  E  E   
--------------|------------|----------------|------------|--------------|
--------------|------------|----------------|------------|--------------|
--------------|------------|----------------|------------|--------------|
-----8--7--5--|------------|--10--10--8--5--|--7----7----|-----7--5-----|
--5-----------|--7----7----|----------------|------------|-----------8--|
--------------|------------|----------------|------------|--8-----------|


  Q    Q       E  E  E  E     Q    Q       E  E  E  E      E   E   E   E   
------------|--------------|------------|--------------|------------------|
------------|--------------|------------|--------------|------------------|
------------|--------------|------------|--------------|------------------|
------------|-----7--5--3--|------------|-----8--7--5--|--10--10--10--10--|
------------|--------------|--5----5----|--5-----------|------------------|
--8----8----|--8-----------|------------|--------------|------------------|


   E   E  E  E     Q    Q       E  E  Q       E  E  Q       E  E  E  E   
----------------|------------|-------------|-------------|--------------|
----------------|------------|-------------|-------------|--------------|
----------------|------------|-------------|-------------|-----5--------|
--12--10--8--5--|------------|--7--7--7----|--7--7--7----|--7--------5--|
----------------|--8----8----|--7--7--7----|--7--7--7----|--------8-----|
----------------|------------|--5--5--5----|--5--5--5----|--------------|


  H            E  E  Q       E  E  E  E     E  E  E  E     Q     Q      
------------|-------------|--------------|--------------|--------------|
------------|-------------|--------------|--------------|--------------|
------------|-------------|--------------|--------------|--------5~----|
--7~--------|--8--8--8----|--8--7--7--7--|--7--5--5--7--|--5h----------|
------------|--8--8--8----|--8--7--7--7--|--7--5--5--7--|--------------|
------------|--6--6--6----|--6--5--5--5--|--5--3--3--5--|--------------|


  E  E  Q       E  E  Q       E  E  E  E     H           E  E  Q     
-------------|-------------|--------------|-----------|-------------|
-------------|-------------|--------------|-----------|-------------|
-------------|-------------|-----5--------|-----------|-------------|
--7--7--7----|--7--7--7----|--7--------5--|--7--------|--8--8--8----|
--7--7--7----|--7--7--7----|--------8-----|--7--------|--8--8--8----|
--5--5--5----|--5--5--5----|--------------|--5--------|--6--6--6----|


  E  E  E  E     E  E  E  E     H                   
--------------|--------------|------------|-------||
--------------|--------------|------------|-------||
--------------|--------------|------------|-------||
--8--7--7--7--|--7--5--5--7--|------------|-------||
--8--7--7--7--|--7--5--5--7--|--8~--------|-------||
--6--5--5--5--|--5--3--3--5--|------------|-------||

Duration Legend
---------------
W - whole
H - half
Q - quarter
E - 8th
S - 16th
T - 32nd
X - 64th
. - note dotted
|-n-|  - n-tuplets


Tablature Legend
----------------
L - tied note
x - dead note
g - grace note
(n) - ghost note
> - accentuded note
NH - natural harmonic
AH - artificial harmonic
TH - tapped harmonic
SH - semi harmonic
PH - pitch harmonic
h - hammer on
p - pull off
b - bend
br - bendRelease
pb - preBend
pbr - preBendRelease
brb - bendReleaseBend
\n/ - tremolo bar dip
\n - tremolo bar dive
-/n - tremolo bar Release up
/n\ - tremolo bar inverted dip
/n - tremolo bar return
-\n - tremolo bar Release down
S - shift slide
s - legato slide
/ -  slide into from below or out of upwards
\ -  slide into from above or out of downwards
~ - vibrato
W - wide vibrato
tr - trill
TP - tremolo picking
T - tapping
S - slap
P - pop
< - fade in
^ - brush up
v - brush down
6Ld5REUUAAAAAA1PBEDya2BDGnf5rYKeKnmYm4Cz
29035e5f7aff43943c9918686dbf1b87