Colinde - O brad frumos

Track 1
     H        Q       E.  S Q    Q       E.  S Q    Q       E  E  Q    Q     
E||----------------|-------------0----|--2---2-2----2----|--0--2--3---------|
B||----------------|--3---3-3----2----|--3---3-2----1----|--0---------------|
G||-----------2----|--2---2-2----0----|--2-----2----2----|--0----------6----|
D||----------------|--0-----4----2----|--0-----0----1----|--2----------5----|
A||----------------|--------2----0----|------------------|------------------|
E||----------------|--2---------------|------------------|-------------5----|


  Q    Q    Q       E.  S Q    Q       E.  S Q    Q       E  E  Q    Q     
--0--------------|-------------0----|--2---2-2----2----|--0--2--3---------|
-------3---------|--3---3-3----2----|--3---3-2----1----|--0---------------|
-------2---------|--2---2-2----0----|--2-----2----2----|--0----------6----|
-------0----2----|--0-----4----2----|--0-----0----1----|--2----------5----|
-----------------|--------2----0----|------------------|------------------|
-------2---------|--2---------------|------------------|-------------5----|


  Q    Q    Q       E  E  Q    Q       E  E  Q    Q       E  E  Q.     E   
--0---------5----|--5-----7----5----|--5--3--3----3----|--3--0--5---------|
-------3---------|--7--7--7----4----|--3-----3---------|--2-----5------8--|
-------2---------|--7-----8----5----|--4-----3---------|--2-----6---------|
-------0---------|--0-----7----4----|--5-----2---------|--2-----5---------|
-----------------|------------------|------------------|--0---------------|
-------2---------|------------------|------------------|------------------|


  E  E  Q    Q       E.  S Q    Q       E.  S Q    Q       E  E  Q    Q     
--3--2--2---------|-------------0----|--2---2-2----2----|--0--2--3---------|
--3--2--3----2----|--3---3-3----2----|--3-----3---------|--0---------------|
--4--2--2---------|--2-----2----3----|--4-----3----2----|--0----------6----|
--5--2--0---------|--3-----0----4----|--0-----0---------|--2----------5----|
------------------|------------------|------------------|------------------|
------------------|------------------|------------------|-------------5----|


  H        Q       H.                     
--0-------------|---------------|-------||
--0--------L----|--3------------|-------||
-----------L----|--2------------|-------||
-----------L----|--0------------|-------||
----------------|---------------|-------||
--3-------------|---------------|-------||




Duration Legend
---------------
W - whole
H - half
Q - quarter
E - 8th
S - 16th
T - 32nd
X - 64th
. - note dotted
|-n-|  - n-tuplets


Tablature Legend
----------------
L - tied note
x - dead note
g - grace note
(n) - ghost note
> - accentuded note
NH - natural harmonic
AH - artificial harmonic
TH - tapped harmonic
SH - semi harmonic
PH - pitch harmonic
h - hammer on
p - pull off
b - bend
br - bendRelease
pb - preBend
pbr - preBendRelease
brb - bendReleaseBend
\n/ - tremolo bar dip
\n - tremolo bar dive
-/n - tremolo bar Release up
/n\ - tremolo bar inverted dip
/n - tremolo bar return
-\n - tremolo bar Release down
S - shift slide
s - legato slide
/ -  slide into from below or out of upwards
\ -  slide into from above or out of downwards
~ - vibrato
W - wide vibrato
tr - trill
TP - tremolo picking
T - tapping
S - slap
P - pop
< - fade in
^ - brush up
v - brush down
6Ld5REUUAAAAAA1PBEDya2BDGnf5rYKeKnmYm4Cz
768ab8590676a75855c355294a4e9425