Coma - Bizz (originalul)

  • (5 voturi)
  • Contribuție:  claudiu
Bizz (melodia  o stiu de la  calin-chitaristul trupei)
acordajul in SI- mai toate melodiile de la coma sunt in SI sau LA
bafta!

Intro - clean
B||-----------------------------------------------------------------
G||----------------------------------------------------------------- 
D||-----------------------------------------------------------------
A||---2------2---2---2---2---2-----------2---2------2---2------- x 3
E||---2------2---2---2---2---2-----------2---2------2---2-----------
B||---0------0---0---3---3---3---4-s-6---0---0------0---0-----------

B||----------------------------------------------------------------
G||---------------------------------------------------------------- 
D||----------------------------------------------------------------
A||---2------2---2---2---2---2-----------2---2-----3------3-------- 
E||---2------2---2---2---2---2-----------2---2-----3------3--------
B||---0------0---0---3---3---3---4-s-6---0---0-----1------1--------

	aceeasi chestie cu distors


strofa
B||------------------------------------------------------------------
G||------------------------------------------------------------------
D||------------------------------------------------------------------
A||------------------------------------------------------------------
E||---7-p-5---7-p-5---7-p-5-------7-p-5-------7-p-5---7-p-5---7-p-5--
B||-------------------------------0------------0---------------------

Pre-refren
B||------------------------------------------------------------------
G||------------------------------------------------------------------
D||------------------------------------------------------------------
A||------------------------------------------------------------------
E||------------7---7---7---7-----------------------------6---6-------
B||---0---0---------------------7---8------7---8---8------------8----

Refren 
B||------------------------------------------------------------------
G||------------------------------------------------------------------
D||------------------------------------------------------------------
A||------------------------------------------------------------------
E||------------7-------7------------------------------6---6----------
B||---0---0-------------------7---8------7---8---------------8---7---
6Ld5REUUAAAAAA1PBEDya2BDGnf5rYKeKnmYm4Cz
c43932f789f47a6dd3b439529fc51f2f