Compact - Cine esti tu oare?

  • Contribuție:  sika
  • Ultima actualizare: 03.10.2008
INTRO SI REFREN:

e-------------------------------------------|
B-------------------------------------------|
G-------------------------------------------|
D-2---2---2--3---3---3--5---5---5---5s7-7---|
A-0-0-0-0-0--0-0-0-0-0--0-0-0-0-0---0---0---|
E-------------------------------------------|

VERSURI:

e-------------------------------------------|
B-------------------------------------------|
G-------------------------------------------|
D-------------------------------------------|
A-2---2---2--3---3---3--5---5---5--7---7---7|
E-0-0-0-0-0--0-0-0-0-0--0-0-0-0-0--0-0-0-0-0|

Cine esti tu oare?
Si de unde ai veni?
Ma privesti intruna
Te privesc si eu uimit.
Ochii tai, iubito,
Ochii ce de atatea ori
I-am visat in noapte.
Ploaie dulce peste flori.

A5                 C5             D5
Cine esti tu oare? Cine esti tu oare?

Refren:
Cu tine as vrea sa fiu
In seara asta pana tarziu.
Cu tine, daca ai vrea
As sta o viata, o viata as sta.
Cu tine as vrea sa fiu
In seara asta pana tarziu.
Cu tine, daca ai vrea
As sta o viata, o viata as sta

Vino-n seara asta
Visul meu incepe iar.
Ies in noapte afara,
Luna iar imi bate-n geam.
Stau acum pe ganduri
Si as vrea sa nu te pierd.
Stiu ca esti departe
Totusi inspre tine alerg.

Cine esti tu oare? Cine esti tu oare?

Refren:
6Ld5REUUAAAAAA1PBEDya2BDGnf5rYKeKnmYm4Cz
41b83125ba79a10c517d72979cac71f3