Ducu Bertzi - În ziua când va fi să vii

Intro:

D  A
D  A (vioară)

Partea care urmeaza e adaptata pentru o singura chitara, 
am facut-o mai mult pentru incepatori:

     D                          A             
E||--------------2-----------|--------------0------|
B||--------3-----------3-----|--------2------------|
G||-----2-----2--------------|-----2-----2---------|
D||--0-----------------------|---------------------|
A||--------------------------|--0------------------|
E||--------------------------|---------------------|


  Bm                         G                     
--------------0-----------|--------------3---------|
-----------3--------------|-----------3-----0------|
--------4-----------------|--------0-------------0-|
-----4--------------------|-----0--------5-----4---|
--2-----------------------|------------------------|
--------------------------|--3---------------------|


  Em                         A                        
--------------0-----------|--------------0-----------|
--------0-----------0-----|--------2-----------------|
-----0-----0--------------|-----2-----2--------------|
--2-----------------------|--------------------------|
--------------------------|--0-----------------------|
--------------------------|--------------------------|


  G                  A    A/B  A        G              A  
                          ^    ^                          
--------------3---|------------------|--------------3--0--|
--------0---------|-------0----2-----|-----------0-----2--|
-----0-----0------|-------4----2-----|--------0--------2--|
------------------|-------2----2-----|-----0--------------|
------------------|--0----0----0-----|--------------------|
--3---------------|------------------|--3-----------------|


  D                   
  ^                   
--2--------L--------||
--3--------L--------||
--2--------L--------||
--0--------L--------||
--------------------||
--------------------||

D                     A
În ziua când va fi să vii
Bm                   G
Iubire veche, neschimbată
Em                      A  
Îţi voi deschide înc-o dată
G                    A
Măcar acum de te-ai opri
G               A     D
În ziua când va fi să vii

D  A
D  A (vioară)

În ziua când va fi să vii
Îţi voi ieşi cântând în cale
şi ochii grei de vindecare
Privindu-te, vor amuţi
În ziua când va fi să vii

În ziua când va fi să vii
Voi da perdelele-ntro parte
Absenţa lor să nu-mi mai poarte
Nesomnul orelor târzii
În ziua când va fi să vii

şi-n ziua când va fi să vii
Ce-ar mai putea să se întâmple
Voi râde mult la tine-n tâmple
Voi plânge-ncet când nu vei şti
În ziua când va fi să vii
  • emilori
    22 februarie 2011 18:44
    cred ca ai uitat ceva ..capo pe fretul 3 .. in rest e totul perfect
  • Pasarea Phoenix
    15 februarie 2010 15:00
    Cu tot respectul dupa 9 luni de chitara ar fi trebuit sa faci schimbarea la Bm bine ..... acuma depinde si de tine
6Ld5REUUAAAAAA1PBEDya2BDGnf5rYKeKnmYm4Cz
e7a824a9d21f35ad43c5d6efb0527376